Mezmerize album

System Of A Down

Band- System Of A Down 
Album- Mezmerize 
 
Track Listings: 
1.Soldier Side-Intro 
2.B.Y.O.B. 
3.Revenga 
4.Cigaro 
5.Radio/Video 
6.This Cocaine Makes Me Feel Like I'm On This Song 
7.Violent Pornography 
8.Question! 
9.Sad Statue 
10.Old School Hollywood 
11.Lost In Hollywood 
 
------------------------------------------------------ 
 
1.SOLDIER SIDE-INTRO 
 
|-13----13----12----12----|-15------------13----| 
|-------------------------|---------------------| 
|-------------------------|---------------------| 
|----12----------11----11-|----14------12----12-| 
 
|-12----12----12----12----|-10~~~~~~~-----------| 
|-------------------------|---------------------| 
|-------------------------|---------------------| 
|----11----11----11----11-|-9~~~~~~~~----12--10-| 
					 
|--------------------------|------------------------| 
|--------------------------|------------------------| 
|--------------------------|------------------------| 
|-(10)~~~~--12?10-------13-|-12~~~~---12?10------13-| 
   
|---------------------|-----------------------------| 
|---------------------|-----------------------------| 
|---------------------|-----------------------------| 
|-12~~~~~~~~~~~----12-|10~~~~~~----12~~~~~~~~~~~~~~-| 
	 
 
|--------------------|--------------------------| 
|--------------------|--------------------------| 
|--------------------|--------------------------| 
|-(12)~~~-----12--10-|-(10)~~~~--12?10-------13-| 
       
 
|------------------------|---------------------| 
|------------------------|---------------------| 
|------------------------|---------------------| 
|12~~~~---12?10-------13-|-12~~~~~~~~~~~----12-| 
 
|-----------------------------|-------------| 
|-----------------------------|-------------| 
|-----------------------------|-------------| 
|10~~~~~~----12~~~~~~~~~~~~~~-|-(12)~~~~~~~-| 
 
|----13----13---12----12-|---12/14----------13----| 
|------------------------|------------------------| 
|------------------------|------------------------| 
|-12----12---------13----|-11------------12----12-| 
 
 
|-12----12----13----13----|-15----15----15----15----| 
|-------------------------|-------------------------| 
|-------------------------|-------------------------| 
|----12----12----12----12-|----14----14----14----14-| 
 
2.B.Y.O.B. 
 
RIFF 1 
Gb|----------------------------------------------------------|| 
Db|----------------------------------------------------------|| 
Ab|--------------------------------------------------7--8-10-|| 
Db|0-0-0-7-0-0-8-0-0-7-0-0-8-0-0-7-0-0-0-7-0-0-8-0-0---------|| 
 
 
Gb|----------------------------------------------------------|| 
Db|----------------------------------------------------------|| 
Ab|--------------------------------------------------10--8-7-|| 
Db|0-0-0-7-0-0-8-0-0-7-0-0-8-0-0-7-0-0-0-7-0-0-8-0-0---------|| 
 
  RIFF 2 
Gb|-----------------------------------------|| 
Db|-----------------------------------------|| 
Ab|--------------------------------------8--|| 
Db|7-0-0-8-0-0-7-0-0-8-0-0-7-0-0-8-0-0-7----|| 
 
 
Gb|-----------------------------------------|| 
Db|-----------------------------------------||  Repeat 
Ab|------------------------10--8-7----------|| 
Db|7-0-0-8-0-0-7-0-0-8-0-0------------------|| 
 
   RIFF 3 
Gb|------------------------------------------------|| 
Db|------------------------------------------------|| 
Ab|------------------------------------------------|| 
Db|7-0-0-8-0-0-7-0-0-8-0-0-7-0-0-8-0-0-7-0-0-8-0-0-|| 
 
 
Gb|-----------------------------------------------|| 
Db|-----------------------------------------------|| 
Ab|--------------------------------------8--------|| 
Db|7-0-0-8-0-0-7-0-0-8-0-0-7-0-0-8-0-0-7----------|| 
 
 
Gb|------------------------------------------------|| 
Db|------------------------------------------------|| 
Ab|------------------------------------------------|| 
Db|7-0-0-8-0-0-7-0-0-8-0-0-7-0-0-8-0-0-7-0-0-8-0-0-|| 
 
 
Gb|------------------------------------|| 
Db|------------------------------------|| 
Ab|------------------------------------|| 
Db|7-0-0-8-0-0-7-0-0-8-0-0-5--3--2-3-2-|| 
 
  PRE-Chorus 
Gb|------------------------------------------|| 
Db|--------------------------------3-2-0-----|| 
Ab|----------------------3-3-0-3-0-----------|| 
Db|0--0--0-2-3-5-3-2-0-2-----------------3-2-|| 
 
 
Gb|-----------------------------------------|| 
Db|-----------------------------------------|| 
Ab|-----------------------------------------|| 
Db|0--0--0-5-7-8-7-5-3-5-3-2----------------|| 
 
  Chorus 
Gb|---------------------------------------|| 
Db|---------------------------------------|| 
Ab|------------------------3-3-3--3--3-3--|| 
Db|0-0-0---0---0-0--0-0-0-----------------|| 
 
Gb|---------------------------------------------|| 
Db|---------------------------------------------||  Repeat 
Ab|---------------------------------------------|| 
Db|0-0-0---0-----5-7-8-7-5-3-5-3-2--------------|| 
 
  RIFF 3 
Gb|------------------------------------------------|| 
Db|------------------------------------------------|| 
Ab|------------------------------------------------|| 
Db|7-0-0-8-0-0-7-0-0-8-0-0-7-0-0-8-0-0-7-0-0-8-0-0-|| 
 
Gb|-----------------------------------------------|| 
Db|-----------------------------------------------|| 
Ab|--------------------------------------8--------|| 
Db|7-0-0-8-0-0-7-0-0-8-0-0-7-0-0-8-0-0-7----------|| 
 
 
Gb|------------------------------------------------|| 
Db|------------------------------------------------|| 
Ab|------------------------------------------------|| 
Db|7-0-0-8-0-0-7-0-0-8-0-0-7-0-0-8-0-0-7-0-0-8-0-0-|| 
 
 
Gb|------------------------------------|| 
Db|------------------------------------|| 
Ab|------------------------10--8-7-----|| 
Db|7-0-0-8-0-0-7-0-0-8-0-0-------------|| 
 
  RIFF 2 
Gb|-----------------------------------------|| 
Db|-----------------------------------------|| 
Ab|--------------------------------------8--|| 
Db|7-0-0-8-0-0-7-0-0-8-0-0-7-0-0-8-0-0-7----|| 
 
 
Gb|-----------------------------------------|| 
Db|-----------------------------------------||  Repeat 
Ab|------------------------10--8-7----------|| 
Db|7-0-0-8-0-0-7-0-0-8-0-0------------------|| 
 
  PRE-Chorus 
Gb|------------------------------------------|| 
Db|--------------------------------3-2-0-----|| 
Ab|----------------------3-3-0-3-0-----------|| 
Db|0--0--0-2-3-5-3-2-0-2-----------------3-2-|| 
 
 
Gb|-----------------------------------------|| 
Db|-----------------------------------------|| 
Ab|-----------------------------------------|| 
Db|0--0--0-5-7-8-7-5-3-5-3-2----------------|| 
 
  Chorus 
Gb|---------------------------------------|| 
Db|---------------------------------------|| 
Ab|------------------------3-3-3--3--3-3--|| 
Db|0-0-0---0---0-0--0-0-0-----------------|| 
 
Gb|---------------------------------------------|| 
Db|---------------------------------------------||  Repeat 
Ab|---------------------------------------------|| 
Db|0-0-0---0-----5-7-8-7-5-3-5-3-2--------------|| 
 
  RIFF 4 
Gb|-------------------------------------------|| 
Db|-------------------------------------------||  Repeat 8x 
Ab|-------------------------------------------|| 
Db|7-7-7-7-7-7-7-7-10-7-7-8-7-7-5-------------|| 
 
  RIFF 5 
Gb|-----------------------------------------------------|| 
Db|-----------------------------------------------------||  Repeat 3x 
Ab|5-5-5-5-1-1-1-1-0-0-0-0-7-0-0-8-0-0-7-0-0------------|| 
Db|-----------------------------------------------------|| 
 
  RIFF 6 
Gb|---------------------------------------------|| 
Db|---------------------------------------------||  Repeat 3x 
Ab|0-0-0-0-0-0-0-0-7-0-0-8-0-0-7-0-0------------|| 
Db|---------------------------------------------|| 
 
  RIFF 3 
Gb|------------------------------------------------|| 
Db|------------------------------------------------|| 
Ab|------------------------------------------------|| 
Db|7-0-0-8-0-0-7-0-0-8-0-0-7-0-0-8-0-0-7-0-0-8-0-0-|| 
 
Gb|-----------------------------------------------|| 
Db|-----------------------------------------------|| 
Ab|--------------------------------------8--------|| 
Db|7-0-0-8-0-0-7-0-0-8-0-0-7-0-0-8-0-0-7----------|| 
 
 
Gb|------------------------------------------------|| 
Db|------------------------------------------------|| 
Ab|------------------------------------------------|| 
Db|7-0-0-8-0-0-7-0-0-8-0-0-7-0-0-8-0-0-7-0-0-8-0-0-|| 
 
 
Gb|------------------------------------|| 
Db|------------------------------------|| 
Ab|------------------------10--8-7-----|| 
Db|7-0-0-8-0-0-7-0-0-8-0-0-------------|| 
 
  RIFF 2 
Gb|-----------------------------------------|| 
Db|-----------------------------------------|| 
Ab|--------------------------------------8--|| 
Db|7-0-0-8-0-0-7-0-0-8-0-0-7-0-0-8-0-0-7----|| 
 
 
Gb|-----------------------------------------|| 
Db|-----------------------------------------||  Repeat 
Ab|------------------------10--8-7----------|| 
Db|7-0-0-8-0-0-7-0-0-8-0-0------------------|| 
 
  PRE-Chorus 
Gb|------------------------------------------|| 
Db|--------------------------------3-2-0-----|| 
Ab|----------------------3-3-0-3-0-----------|| 
Db|0--0--0-2-3-5-3-2-0-2-----------------3-2-|| 
 
 
Gb|-----------------------------------------|| 
Db|-----------------------------------------||  Repeat 
Ab|-----------------------------------------|| 
Db|0--0--0-5-7-8-7-5-3-5-3-2----------------|| 
 
  Chorus 
Gb|---------------------------------------|| 
Db|---------------------------------------|| 
Ab|------------------------3-3-3--3--3-3--|| 
Db|0-0-0---0---0-0--0-0-0-----------------|| 
 
Gb|---------------------------------------------|| 
Db|---------------------------------------------||  Repeat 
Ab|---------------------------------------------|| 
Db|0-0-0---0-----5-7-8-7-5-3-5-3-2--------------|| 
 
RIFF 5 
Gb|-----------------------------------------------------|| 
Db|-----------------------------------------------------||  Repeat 3x 
Ab|5-5-5-5-1-1-1-1-0-0-0-0-7-0-0-8-0-0-7-0-0------------|| 
Db|-----------------------------------------------------|| 
 
  RIFF 6 
Gb|---------------------------------------------|| 
Db|---------------------------------------------|| 
Ab|0-0-0-0-0-0-0-0-7-0-0-8-0-0-7-0-0------------|| 
Db|---------------------------------------------|| 
 
THAN A LITTLE BREAK FOR GUITAR (TIME: 4:01) START AFTER THAT 
 
Riff 7 
Gb|------------------------------------------------------|| 
Db|------------------------------------------------------||  Repeat 4x 
Ab|0-0-0-0-7-0-0-0-0-0-0-0-0-7-0-0-8-0-0-7-0-0-----------|| 
Db|------------------------------------------------------|| 
 
3.REVENGA 
 
F#||-------------------|------------------|-------------------| 
C#||-------------------|------------------|-------------------| 
G#||-------------------|------------------|--0----------------| 
C#||--0----------------|------------------|-------------------| 
 
 
 
------------------|-------------------|--------------------|-------------------| 
------------------|-------------------|--------------------|-------------------| 
------------------|--1----------------|----------1----0----|-------------------| 
------------------|-------------------|--------------------|--6----------------| 
 
 
 
------------------||-------------------------------|---------------------------| 
------------------||*------------------------------|---------------------------| 
------------------||*------------------------------|----------------1--1--1----| 
------------------||---0--0-0-0--0-0-0--0-0-0--0-0-|--0--0-0-0-0-0-------------| 
 
 
 
------------------------------|-------------------------------|| 
------------------------------|------------------------------*|| 
------------------------------|------------------------------*|| 
--0--0-0-0--0-0-0--0-0-0--0-0-|--8-7-5--8-7-5--8-7-5--8-7-5---|| 
 
 
 
---------------------------------|-----------------------------| 
*--------------------------------|-----------------------------| 
*--------------------------------|------------------------4----| 
---0-0-0-0-0--0-0-0-0-0--0-0-0-0-|--0--0-0-0-0-0--0-0-0-0------| 
 
 
 
--------------------------------|-----------------------| 
--------------------------------|-----------------------| 
--------------------------------|--4----5----4--1--0----| 
--0-0-0-0-0--0-0-0-0-0--0-0-0-0-|-----------------------| 
 
 
 
--------------------------------|-----------------------------| 
--------------------------------|-----------------------------| 
--------------------------------|------------------------4----| 
--0-0-0-0-0--0-0-0-0-0--0-0-0-0-|--0--0-0-0-0-0--0-0-0-0------| 
 
 
 
--------------------------------|----------------------| 
--------------------------------|----------------------| 
--------------------------------|--4----5----7----8----| 
--0-0-0-0-0--0-0-0-0-0--0-0-0-0-|----------------------| 
 
 
 
-------------------------|-------------------------|-------------------------| 
-------------------------|-------------------------|-------------------------| 
-------------------------|-------------------------|--0----0--0--0--0--0--0--| 
--0----0--0--0--0--0--0--|--0----0--0--0--0--0--0--|-------------------------| 
 
 
 
-------------------------|-------------------------|-----------------------| 
-------------------------|-------------------------|-----------------------| 
--0----0--0--0--0--0--0--|--1----1--1--1--1--1--1--|--1----1--1--1----0----| 
-------------------------|-------------------------|-----------------------| 
 
 
 
-------------------------|-------------------------|-------------------------| 
-------------------------|-------------------------|-------------------------| 
-------------------------|-------------------------|-------------------------| 
--6----6--6--6--6--6--6--|--3----3--3--3--3--3--3--|--0----0--0--0--0--0--0--| 
 
 
 
-------------------------|-------------------------|-------------------------| 
-------------------------|-------------------------|-------------------------| 
-------------------------|--0----0--0--0--0--0--0--|--0----0--0--0--0--0--0--| 
--0----0--0--0--0--0--0--|-------------------------|-------------------------| 
 
 
 
-------------------------|-----------------------|-------------------------| 
-------------------------|-----------------------|-------------------------| 
--1----1--1--1--1--1--1--|--1----1--1--1----0----|-------------------------| 
-------------------------|-----------------------|--6----6--6--6--6--6--6--| 
 
 
 
--------------------------||------------------------------| 
-------------------------*||------------------------------| 
-------------------------*||------------------------------| 
--3----3--3--3--3--3--3---||--0--0-0-0--0-0-0--0-0-0--0-0-| 
 
 
 
---------------------------|------------------------------| 
---------------------------|------------------------------| 
----------------1--1--1----|------------------------------| 
--0--0-0-0-0-0-------------|--0--0-0-0--0-0-0--0-0-0--0-0-| 
 
 
 
------------------------------|------------------------------| 
------------------------------|------------------------------| 
------------------------------|------------------------------| 
--8-7-5--8-7-5--8-7-5--8-7-5--|--0--0-0-0--0-0-0--0-0-0--0-0-| 
 
 
 
---------------------------|------------------------------| 
---------------------------|------------------------------| 
----------------1--1--1----|------------------------------| 
--0--0-0-0-0-0-------------|--0--0-0-0--0-0-0--0-0-0--0-0-| 
 
 
 
------------------------------|-------------------|------------------| 
------------------------------|-------------------|------------------| 
------------------------------|-------------------|------------------| 
--8-7-5--8-7-5--8-7-5--8-7-5--|--0----------------|------------------| 
 
 
 
-------------------|------------------|-------------------|--------------------| 
-------------------|------------------|-------------------|--------------------| 
--0----------------|------------------|--1----------------|----------1----0----| 
-------------------|------------------|-------------------|--------------------| 
 
 
 
-------------------|------------------|-----------------------| 
-------------------|------------------|-----------------------| 
-------------------|------------------|-----------------------| 
--6----------------|------------------|--0--0----0----0----0--| 
 
 
 
-----------------------|-----------------------|-----------------------| 
-----------------------|-----------------------|-----------------------| 
-----------------------|--0--0----0----0----0--|--0--0----0----0----0--| 
--0--0----0----0----0--|-----------------------|-----------------------| 
 
 
 
-----------------------|-------------------------|-----------------------| 
-----------------------|-------------------------|-----------------------| 
--1--1----1----1----1--|--1--1----1--1--1--0--0--|-----------------------| 
-----------------------|-------------------------|--6--6----6----6----6--| 
 
 
 
-----------------------|-------------------|-------------------| 
-----------------------|-------------------|----------4r-------| 
-----------------------|-------------------|-------------------| 
--3--3----3----3----3--|--0----------------|-------------------| 
 
 
 
-------------------|-------------------|-------------------|-------------------| 
--3----------------|----------3r-------|--1----------------|--4----------------| 
-------------------|-------------------|-------------------|-------------------| 
-------------------|-------------------|-------------------|-------------------| 
 
 
 
-------------------|------------------|-------------------|-------------------| 
-------------------|------------------|-------------------|----------4r-------| 
-------------------|------------------|-------------------|-------------------| 
--0----------------|------------------|--0----------------|-------------------| 
 
 
 
-------------------|-------------------|-------------------|-------------------| 
--3----------------|----------3r-------|--1----------------|--4----------------| 
-------------------|-------------------|-------------------|-------------------| 
-------------------|-------------------|-------------------|-------------------| 
 
 
 
-------------------|------------------|-------------------------| 
-------------------|------------------|-------------------------| 
-------------------|------------------|-------------------------| 
--0----------------|------------------|--0----0--0--0--0--0--0--| 
 
 
 
-------------------------|-------------------------|-------------------------| 
-------------------------|-------------------------|-------------------------| 
-------------------------|--0----0--0--0--0--0--0--|--0----0--0--0--0--0--0--| 
--0----0--0--0--0--0--0--|-------------------------|-------------------------| 
 
 
 
-------------------------|-----------------------|-------------------------| 
-------------------------|-----------------------|-------------------------| 
--1----1--1--1--1--1--1--|--1----1--1--1----0----|-------------------------| 
-------------------------|-----------------------|--6----6--6--6--6--6--6--| 
 
 
 
-------------------------|-------------------------|-------------------------| 
-------------------------|-------------------------|-------------------------| 
-------------------------|-------------------------|-------------------------| 
--3----3--3--3--3--3--3--|--0----0--0--0--0--0--0--|--0----0--0--0--0--0--0--| 
 
 
 
-------------------------|-------------------------|-------------------------| 
-------------------------|-------------------------|-------------------------| 
--0----0--0--0--0--0--0--|--0----0--0--0--0--0--0--|--1----1--1--1--1--1--1--| 
-------------------------|-------------------------|-------------------------| 
 
 
 
-----------------------|-------------------------|-------------------------| 
-----------------------|-------------------------|-------------------------| 
--1----1--1--1----0----|-------------------------|-------------------------| 
-----------------------|--6----6--6--6--6--6--6--|--3----3--3--3--3--3--3--| 
 
 
 
--------------------------------|-----------------------------| 
--------------------------------|-----------------------------| 
--------------------------------|------------------------4----| 
--0-0-0-0-0--0-0-0-0-0--0-0-0-0-|--0--0-0-0-0-0--0-0-0-0------| 
 
 
 
--------------------------------|-----------------------| 
--------------------------------|-----------------------| 
--------------------------------|--4----5----4--1--0----| 
--0-0-0-0-0--0-0-0-0-0--0-0-0-0-|-----------------------| 
 
 
 
------------------------------|---------------------------| 
------------------------------|---------------------------| 
------------------------------|----------------1--1--1----| 
--0--0-0-0--0-0-0--0-0-0--0-0-|--0--0-0-0-0-0-------------| 
 
 
 
------------------------------|------------------------------| 
------------------------------|------------------------------| 
------------------------------|------------------------------| 
--0--0-0-0--0-0-0--0-0-0--0-0-|--8-7-5--8-7-5--8-7-5--8-7-5--| 
 
 
 
------------------------------|---------------------------| 
------------------------------|---------------------------| 
------------------------------|----------------1--1--1----| 
--0--0-0-0--0-0-0--0-0-0--0-0-|--0--0-0-0-0-0-------------| 
 
 
 
------------------------------|------------------------------| 
------------------------------|------------------------------| 
------------------------------|------------------------------| 
--0--0-0-0--0-0-0--0-0-0--0-0-|--8-7-5--8-7-5--8-7-5--8-7-5--| 
 
 
 
-------------------|| 
-------------------|| 
-------------------|| 
--0----------------|| 
 
4.CIGARO 
 
Intro 
F --------------------------------| 
C --------------------------------| X4 
G --------------------------------| 
C -023-023-023-023-023-023-445544-| 
 
My c*ck can walk right through the door 
F ------------------------------| 
C ------------------------------|  X2 
G ------------------------------| 
C -000223322--------------------| 
 
In denial.. 
F --------------------------------| 
C --------------------------------| X2 
G --------------------------------| 
C -023-023-023-023-023-023-445544-| 
 
My sh*t stinks much better... 
F ------------------------------| 
C ------------------------------|  X2 
G ------------------------------| 
C -000223322--------------------| 
 
In denial.. 
F --------------------------------| 
C --------------------------------| X2 
G --------------------------------| 
C -023-023-023-023-023-023-445544-| 
 
In denial.. (slow) 
F --------------------------------| 
C --------------------------------|  X2 
G --------------------------------| 
C -0--0--0--0-445544--------------| 
 
Cant you see that I love my c*ck? 
F --------------------------------| 
C --------------------------------|  X3 
G --------------------------------| 
C -3X3X3X3X---5-6-7-6-------------| 
 
Cant you see that we love my c*ck? 
F --------------------------------| 
C --------------------------------|  X3 
G --------------------------------| 
C -5-6-7-6------------------------| 
 
We're the regulators.. 
F ------------------------------| 
C ------------------------------|  X4 
G ------------------------------| 
C -000223322--------------------| 
 
In denial.. 
F --------------------------------| 
C --------------------------------| X2 
G --------------------------------| 
C -023-023-023-023-023-023-445544-| 
 
We're the regulators.. 
F ------------------------------| 
C ------------------------------|  X2 
G ------------------------------| 
C -000223322--------------------| 
 
In denial.. 
F --------------------------------| 
C --------------------------------| X2 
G --------------------------------| 
C -023-023-023-023-023-023-445544-| 
 
Song Ends With Vocals / Drum Beat. 
 
5.RADIO/VIDEO 
 
Tuning: Standard (E A D G) 
 
not sure on the tuning 
 
Verse 
G|----------------------------------------------------------------|| 
D|----------------------------------------------------------------|| 
A|----------------------------------------------------------------|| 
E|6-6--8-8--9-9-9-9-9-10-9-8-8-8-8-8------------------------------|| 
 
G|----------------------------------------------------------------|| 
D|----------------------------------------------------------------|| 
A|----------------------------------------------------------------|| 
E|6-6--8-8--9-9-9-9-9-14-13-12-12-12-12-12------------------------||x2 
 
G|----------------------------------------------------------------|| 
D|----------------------------------------------------------------|| 
A|----------------------------------------------------------------|| 
E|13-12-10-8-7-5--------------------------------------------------|| 
 
Chorus 
G|----------------------------------------------------------------|| 
D|----------------------------------------------------------------|| 
A|----------------------------------------------------------------|| 
E|5-5-5-5-5-5-5-5-5-5-5-5-5-5-5-5--3-3-3-3-3-3-3-3-3-3-3-3-3-3-3--||x4 
 
Verse 
G|----------------------------------------------------------------|| 
D|----------------------------------------------------------------|| 
A|----------------------------------------------------------------|| 
E|6-6--8-8--9-9-9-9-9-10-9-8-8-8-8-8------------------------------|| 
 
G|----------------------------------------------------------------|| 
D|----------------------------------------------------------------|| 
A|----------------------------------------------------------------|| 
E|6-6--8-8--9-9-9-9-9-14-13-12-12-12-12-12------------------------||x2 
 
G|----------------------------------------------------------------|| 
D|----------------------------------------------------------------|| 
A|----------------------------------------------------------------|| 
E|13-12-10-8-7-5--------------------------------------------------|| 
 
Chorus 
G|----------------------------------------------------------------|| 
D|----------------------------------------------------------------|| 
A|----------------------------------------------------------------|| 
E|5-5-5-5-5-5-5-5-5-5-5-5-5-5-5-5--3-3-3-3-3-3-3-3-3-3-3-3-3-3-3--||x4 
Begin to fade from 3rd time to fourth. 
 
Bridge 
G|----------------------------------------------------------------|| 
D|----------------------------------------------------------------|| 
A|----------------------------------------------------------------|| 
E|0-3-5-5--10-9-8--3-5-6-6--14-13-12--13-12-10-8-7-5--------------|| 
 
G|----------------------------------------------------------------|| 
D|----------------------------------------------------------------|| 
A|----------------------------------------------------------------|| 
E|5-5-5-5-5--5-5-5-5-5--5-5-5-5-5--5-5-5-5-5-6--------------------|| 
 
G|----------------------------------------------------------------|| 
D|----------------------------------------------------------------|| 
A|----------------------------------------------------------------|| 
E|3-3-3-3-3--3-3-3-3-3--3-3-3-3-3--3-3-3-3-3-6--------------------||x2 
Increasing in speed each time played 
 
Bridge 2 
G|----------------------------------------------------------------|| 
D|----------------------------------------------------------------|| 
A|----------------------------------------------------------------|| 
E|5-5-5-5--5-5-5-5--5-5-5-5--5-5-5-5-4----------------------------|| 
 
G|----------------------------------------------------------------|| 
D|----------------------------------------------------------------|| 
A|----------------------------------------------------------------|| 
E|3-3-3-3--3-3-3-3--3-3-3-3--3-3-3-3-6----------------------------|| 
 
G|----------------------------------------------------------------|| 
D|----------------------------------------------------------------|| 
A|----------------------------------------------------------------|| 
E|5-5-5-5--5-5-5-5--5-5-5-5--5-5-5-5-6----------------------------|| 
 
G|----------------------------------------------------------------|| 
D|----------------------------------------------------------------|| 
A|----------------------------------------------------------------|| 
E|3-3-3-3--3-3-3-3--3-3-3-3--3-3-3-3-6----------------------------|| 
 
G|----------------------------------------------------------------|| 
D|----------------------------------------------------------------|| 
A|----------------------------------------------------------------|| 
E|5-5--5-5--5-5--5-5-6--3-3--3-3--3-3--3-3-6----------------------||x3 
Increase in speed 
 
Chorus 
G|----------------------------------------------------------------|| 
D|----------------------------------------------------------------|| 
A|----------------------------------------------------------------|| 
E|5-5-5-5-5-5-5-5-5-5-5-5-5-5-5-5--3-3-3-3-3-3-3-3-3-3-3-3-3-3-3--||x4 
 
Verse 
G|----------------------------------------------------------------|| 
D|----------------------------------------------------------------|| 
A|----------------------------------------------------------------|| 
E|6-6--8-8--9-9-9-9-9-10-9-8-8-8-8-8------------------------------|| 
 
G|----------------------------------------------------------------|| 
D|----------------------------------------------------------------|| 
A|----------------------------------------------------------------|| 
E|6-6--8-8--9-9-9-9-9-14-13-12-12-12-12-(13-12-10-8-7-5-5-5-5-5-5-||x2 
 
 
G|----------------------------------------------------------------|| 
D|----------------------------------------------------------------|| 
A|----------------------------------------------------------------|| 
E|5-5/10-10-10-10-10-10-10)----------------------------------------|| 
second time only:() 
 
6.THIS COCAINE MAKES ME FEEL LIKE I'M ON THIS SONG 
 
Tuning: Standard (EADG) 
 
G|---------------------------------------------------------------------------| 
D|---------------------------------------------------------------------------| 
A|---------------------------------------------------------------------------| 
E|-3-3x----1-4-33x----1-3-44x----6-4-33x----1-4-33x--------------------------| 
 
G|---------------------------------------------------------------------------| 
D|---------------------------------------------------------------------------| 
A|---------------------------------------------------------------------------| 
E|-1-4-33x----1-3-44x----6-4-33x----1-4-33x----1-4-33x----1-3-44x----6-4-33x-| 
 
G|---------------------------------------------------------------------------| 
D|---------------------------------------------------------------------------| 
A|---------------------------------------------------------------------------| 
E|-1-3-7-67676-7-67676-7-67676-7-67676-7-67676-7-67676-7-67676-7-67676-------| 
 
G|---------------------------------------------------------------------------| 
D|---------------------------------------------------------------------------| 
A|---------------------------------------------------------------------------| 
E|\3x----------------4x4x-4444-33333333333333333333333333333333-4x4x-4444----| 
 
G|---------------------------------------------------------------------------| 
D|---------------------------------------------------------------------------| 
A|---------------------------------------------------------------------------| 
E|-7-67676-7-67676-7-67676-7-67676-7-67676-7-67676-7-67676-7-67676-----------| 
 
G|---------------------------------------------------------------------------| 
D|---------------------------------------------------------------------------| 
A|---------------------------------------------------------------------------| 
E|-33x----1-4-33x----1-3-44x----6-4-33x----1-4-33x----1-4-33x----------------| 
 
G|---------------------------------------------------------------------------| 
D|---------------------------------------------------------------------------| 
A|---------------------------------------------------------------------------| 
E|-1-3-44x----6-4-33x-------------------------------------------------------| 
 
G|---------------------------------------------------------------------------| 
D|---------------------------------------------------------------------------| 
A|---------------------------------------------------------------------------| 
E|-1-3-7-67676-7-67676-7-67676-7-67676-7-67676-7-67676-7-67676-7-67676-------| 
 
G|---------------------------------------------------------------------------| 
D|---------------------------------------------------------------------------| 
A|---------------------------------------------------------------------------| 
E|\3x----------------4x4x-4444-33333333333333333333333333333333-4x4x-4444----| 
 
G|---------------------------------------------------------------------------| 
D|---------------------------------------------------------------------------| 
A|---------------------------------------------------------------------------| 
E|-7-67676-7-67676-7-67676-7-67676-7-67676-7-67676-7-67676-7-67676-----------| 
 
G|---------------------------------------------------------------------------| 
D|---------------------------------------------------------------------------| 
A|---------------------------------------------------------------------------| 
E|-33x----1-4-33x----1-3-44x----6-4-33x----1-4-33x----1-4-33x----------------| 
 
G|---------------------------------------------------------------------------| 
D|---------------------------------------------------------------------------| 
A|---------------------------------------------------------------------------| 
E|-1-3-44x----6-4-33x----1-4-3x----------------------------------------------| 
 
7.VIOLENT PORNOGRAPHY 
 
Intro/Chorus 
Gb|-------------------------------------------------------------------------| 
Db|-------------------------------------------------------------------------| 
Ab|-------------------------------------------------------------------------| 
Db|-0~---4~---5~---7~---8~---10~---12~---8~---------------------------------| 
 
Verse pt. 1 (everybody, everybody) 
Gb|-------------------------------------------------------------------------| 
Db|-------------------------------------------------------------------------| 
Ab|-56--67--76--65----------------------------------------------------------| 
Db|-------------------------------------------------------------------------| 
 
Verse pt. 2 (non-stop disco) 
Gb|-------------------------------------------------------------------------| 
Db|-------------------------------------------------------------------------| 
Ab|-------------------------------------------------------------------------| 
Db|-12\--00-0-00-000-0-00-000-0-00-1-3-4-00-0-00-000-0-00-000-0-00-4-3-1----| 
 
Gb|-------------------------------------------------------------------------| 
Db|-------------------------------------------------------------------------| 
Ab|-------------------------------------------------------------------------| 
Db|-00-0-00-000-0-00-000-0-00-1-3-4-00-0-00-000-0-00-000-0-00-4-3-----------| 
 
Chorus pt. 2 
Gb|--------------------------------------------------------------------------| 
Db|--------------------------------------------------------------------------| 
Ab|--------------------------------------------------------------------------| 
Db|-0-000000--4-444444--5-555555--7-777777--8-8888888------------------------| 
 
Gb|-------------------------------------------------------------------------| 
Db|-------------------------------------------------------------------------| 
Ab|-------------------------------------------------------------------------| 
Db|-10-101010101010--12-121212121212--8-888888------------------------------| 
 
8.QUESTION! 
 
F||------------------|------------------|------------------| 
C||------------------|------------------|------------------| 
G||------------------|------------------|------------------| 
C||------------------|------------------|------------------| 
 
 
 
---------------------|--------------------|-------------------| 
---------------------|--------------------|-------------------| 
---------------------|--------------------|-------------------| 
--12----2------------|--------------12----|--0----------------| 
 
 
 
-----------------------------||--------------------------------| 
-----------------------------||*-------------------------------| 
-----------------------------||*-------------------------------| 
--0--0-0--0-0-0--0--0-0--0-0-||---5--2-2-2-2-5--2-2-2-2-5--2-2-| 
 
 
 
------------------------------|-------------------------------| 
------------------------------|-------------------------------| 
------------------------------|-------------------------------| 
--5--2-2-2-2-5--2-2-5--2-2-5--|--4--0-0-0-0-4--0-0-0-0-4--0-0-| 
 
 
 
-------------------------------||-----------------------------------| 
------------------------------*||*----------------------------------| 
------------------------------*||*--0-0-0-2-0-0-0-2-0-0-0-2-0-0-0-2-| 
--4--0-0-0-0-4--0-0-4--0-0-4---||-----------------------------------| 
 
 
 
-------------------------------||-----------------------------------| 
------------------------------*||*----------------------------------| 
------------------------------*||*----------------------------------| 
--3----0-3-0-3-0-3-0-3-0-3-3---||---5-5-5-7-5-5-5-7-5-5-5-7-5-5-5-7-| 
 
 
 
-------------------------------||--------------------------------| 
------------------------------*||*-------------------------------| 
------------------------------*||*-------------------------------| 
--1----0-1-0-1-0-1-0-1-0-1-1---||---5--2-2-2-2-5--2-2-2-2-5--2-2-| 
 
 
 
------------------------------|-------------------------------| 
------------------------------|-------------------------------| 
------------------------------|-------------------------------| 
--5--2-2-2-2-5--2-2-5--2-2-5--|--4--0-0-0-0-4--0-0-0-0-4--0-0-| 
 
 
 
-------------------------------||-----------------------------------| 
------------------------------*||*----------------------------------| 
------------------------------*||*--0-0-0-2-0-0-0-2-0-0-0-2-0-0-0-2-| 
--4--0-0-0-0-4--0-0-4--0-0-4---||-----------------------------------| 
 
 
 
-------------------------------||-----------------------------------| 
------------------------------*||*----------------------------------| 
------------------------------*||*----------------------------------| 
--3----0-3-0-3-0-3-0-3-0-3-3---||---5-5-5-7-5-5-5-7-5-5-5-7-5-5-5-7-| 
 
 
 
-------------------------------||-------------------------------| 
------------------------------*||-------------------------------| 
------------------------------*||-------------------------------| 
--1----0-1-0-1-0-1-0-1-0-1-1---||--5--2-2-2-2-5--2-2-2-2-5--2-2-| 
 
 
 
------------------------------|-------------------------------| 
------------------------------|-------------------------------| 
------------------------------|-------------------------------| 
--5--2-2-2-2-5--2-2-5--2-2-5--|--4--0-0-0-0-4--0-0-0-0-4--0-0-| 
 
 
 
------------------------------|-------------------------------| 
------------------------------|-------------------------------| 
------------------------------|-------------------------------| 
--4--0-0-0-0-4--0-0-4--0-0-4--|--5--2-2-2-2-5--2-2-2-2-5--2-2-| 
 
 
 
------------------------------|-------------------------------| 
------------------------------|-------------------------------| 
------------------------------|-------------------------------| 
--5--2-2-2-2-5--2-2-5--2-2-5--|--4--0-0-0-0-4--0-0-0-0-4--0-0-| 
 
 
 
-----------------------------|-----------------------------| 
-----------------------------|-----------------------------| 
-----------------------------|--9--9-9--9-9-9--9--9-9--9-9-| 
--0--0-0--0-0-0--0--0-0--0-0-|--0--0-0--0-0-0--0--0-0--0-0-| 
 
 
 
-----------------------------|----------------------------------------| 
-----------------------------|----------------------------------------| 
--9--9-9--9-9-9--9--9-9--9-9/|--11--11-11--11-11-11--11--11-11--11-11-| 
--0--0-0--0-0-0--0--0-0--0-0-|--0---0--0---0--0--0---0---0--0---0--0--| 
 
 
 
----------------------------------------| 
----------------------------------------| 
--11--11-11--11-11-11--11--11-11--11-11/| 
--0---0--0---0--0--0---0---0--0---0--0--| 
 
 
 
----------------------------------------| 
----------------------------------------| 
--12--12-12--12-12-12--12--12-12--12-12-| 
--0---0--0---0--0--0---0---0--0---0--0--| 
 
 
 
----------------------------------------|--------------------------------------| 
----------------------------------------|--------------------------------------| 
--12--12-12--12-12-12--12--12-12--12-12/|--14--14-14--14-14/-12-12/-12/11--11--| 
--0---0--0---0--0--0---0---0--0---0--0--|--0---0--0---0--0---0--0---0--0---0---| 
 
 
 
-----------------------------|-----------------------------| 
-----------------------------|-----------------------------| 
--9--9-9--9-9-9--9--9-9--9-9-|--9--9-9--9-9-9--9--9-9--9-9/| 
--0--0-0--0-0-0--0--0-0--0-0-|--0--0-0--0-0-0--0--0-0--0-0-| 
 
 
 
----------------------------------------| 
----------------------------------------| 
--11--11-11--11-11-11--11--11-11--11-11-| 
--0---0--0---0--0--0---0---0--0---0--0--| 
 
 
 
----------------------------------------| 
----------------------------------------| 
--11--11-11--11-11-11--11--11-11--11-11/| 
--0---0--0---0--0--0---0---0--0---0--0--| 
 
 
 
----------------------------------------| 
----------------------------------------| 
--12--12-12--12-12-12--12--12-12--12-12-| 
--0---0--0---0--0--0---0---0--0---0--0--| 
 
 
 
----------------------------------------|--------------------------------------| 
----------------------------------------|--------------------------------------| 
--12--12-12--12-12-12--12--12-12--12-12/|--14--14-14--14-14/-12-12/-12/11--11--| 
--0---0--0---0--0--0---0---0--0---0--0--|--0---0--0---0--0---0--0---0--0---0---| 
 
 
 
------------------|------------------|------------------|---------------------| 
------------------|------------------|------------------|---------------------| 
------------------|------------------|------------------|---------------------| 
------------------|------------------|------------------|--12----4------------| 
 
 
 
--------------------|-------------------|-----------------------------| 
--------------------|-------------------|-----------------------------| 
--------------------|-------------------|-----------------------------| 
--------------12----|--0----------------|--0--0-0--0-0-0--0--0-0--0-0-| 
 
 
 
|--------------------------------|------------------------------| 
|*-------------------------------|------------------------------| 
|*-------------------------------|------------------------------| 
|---5--2-2-2-2-5--2-2-2-2-5--2-2-|--5--2-2-2-2-5--2-2-5--2-2-5--| 
 
 
 
-------------------------------|-------------------------------|| 
-------------------------------|------------------------------*|| 
-------------------------------|------------------------------*|| 
--4--0-0-0-0-4--0-0-0-0-4--0-0-|--4--0-0-0-0-4--0-0-4--0-0-4---|| 
 
 
 
-----------------------------------|-------------------------------|| 
*----------------------------------|------------------------------*|| 
*--0-0-0-2-0-0-0-2-0-0-0-2-0-0-0-2-|------------------------------*|| 
-----------------------------------|--3----0-3-0-3-0-3-0-3-0-3-3---|| 
 
 
 
----------------------------------|------------------------------| 
----------------------------------|------------------------------| 
----------------------------------|------------------------------| 
--5-5-5-7-5-5-5-7-5-5-5-7-5-5-5-7-|--1----0-1-0-1-0-1-0-1-0-1-1--| 
 
 
 
----------------------------------|-------------------------------| 
----------------------------------|-------------------------------| 
----------------------------------|---------------------------12/-| 
--5-5-5-7-5-5-5-7-5-5-5-7-5-5-5-7-|--1----0-1-0-1-0-1-0-1-0-0-12/-| 
 
 
 
-----------------------------|-----------------------------| 
-----------------------------|-----------------------------| 
--9--9-9--9-9-9--9--9-9--9-9-|--9--9-9--9-9-9--9--9-9--9-9/| 
--0--0-0--0-0-0--0--0-0--0-0-|--0--0-0--0-0-0--0--0-0--0-0-| 
 
 
 
----------------------------------------| 
----------------------------------------| 
--11--11-11--11-11-11--11--11-11--11-11-| 
--0---0--0---0--0--0---0---0--0---0--0--| 
 
 
 
----------------------------------------| 
----------------------------------------| 
--11--11-11--11-11-11--11--11-11--11-11/| 
--0---0--0---0--0--0---0---0--0---0--0--| 
 
 
 
----------------------------------------| 
----------------------------------------| 
--12--12-12--12-12-12--12--12-12--12-12-| 
--0---0--0---0--0--0---0---0--0---0--0--| 
 
 
 
----------------------------------------|--------------------------------------| 
----------------------------------------|--------------------------------------| 
--12--12-12--12-12-12--12--12-12--12-12/|--14--14-14--14-14/-12-12/-12/11--11--| 
--0---0--0---0--0--0---0---0--0---0--0--|--0---0--0---0--0---0--0---0--0---0---| 
 
 
 
--11--11-11--11-11-11--11--11-11--11-11-| 
--0---0--0---0--0--0---0---0--0---0--0--| 
----------------------------------------| 
----------------------------------------| 
 
 
 
--11--11-11--11-11-11--11--11-11--11-11-| 
--0---0--0---0--0--0---0---0--0---0--0--| 
----------------------------------------| 
----------------------------------------| 
 
 
 
--13--13-13--13-13-13--13--13-13--13-13-| 
--0---0--0---0--0--0---0---0--0---0--0--| 
----------------------------------------| 
----------------------------------------| 
 
 
 
--13--13-13--13-13-13--13--13-13--13-13-| 
--0---0--0---0--0--0---0---0--0---0--0--| 
----------------------------------------| 
----------------------------------------| 
 
 
 
--14--14-14--14-14-14--14--14-14--14-14-| 
--0---0--0---0--0--0---0---0--0---0--0--| 
----------------------------------------| 
----------------------------------------| 
 
 
 
--14--14-14--14-14-14--14--14-14--14-14-|--16--16-16--16-16--14-14--14-13--13--| 
--0---0--0---0--0--0---0---0--0---0--0--|--0---0--0---0--0---0--0---0--0---0---| 
----------------------------------------|--------------------------------------| 
----------------------------------------|--------------------------------------| 
 
 
 
----|----|----|----|----|----|----|----|----|| 
----|----|----|----|----|----|----|----|----|| 
----|----|----|----|----|----|----|----|----|| 
----|----|----|----|----|----|----|----|----|| 
 
9.SAD STATUE 
 
F#||------------------|------------------|------------------|------------------| 
C#||------------------|------------------|------------------|------------------| 
G#||------------------|------------------|------------------|------------------| 
C#||------------------|------------------|------------------|------------------| 
 
 
 
-------------------------------|-------------------------------| 
-------------------------------|-------------------------------| 
--5----------------------------|--5-0-5-0-5-0-5-0-5-0-5-0-6----| 
-------0-0-0-0-0-0-0-0-0-0-0-0-|-------------------------------| 
 
 
 
-------------------------------|-------------------------| 
-------------------------------|-------------------------| 
--5----------------------------|----------6----8----6----| 
-------0-0-0-0-0-0-0-0-0-0-0-0-|--0-0-0-0----------------| 
 
 
 
-------------------------------|-------------------------------| 
-------------------------------|-------------------------------| 
--5----------------------------|--5-0-5-0-5-0-5-0-5-0-5-0-6----| 
-------0-0-0-0-0-0-0-0-0-0-0-0-|-------------------------------| 
 
 
 
-----------------------------|--------------------------| 
-----------------------------|--------------------------| 
--5--------------------------|-----6--8--6-----6--8--6--| 
-------0-0-0-0-0-0-0-0-12/---|--0-----------0-----------| 
 
 
 
-------------------------|-------------------------------| 
-------------------------|-------------------------------| 
--5----------------------|--5-0-5-0-5-0-5-0-5-0-5-0-6----| 
-------0--0--0--0--0--0--|-------------------------------| 
 
 
 
-------------------------|-----------------------|-------------------------| 
-------------------------|-----------------------|-------------------------| 
--5----------------------|--------6----8----6----|--5----------------------| 
-------0--0--0--0--0--0--|--0--0-----------------|-------0--0--0--0--0--0--| 
 
 
 
-------------------------------|-------------------------| 
-------------------------------|-------------------------| 
--5-0-5-0-5-0-5-0-5-0-5-0-6----|--5----------------------| 
-------------------------------|-------0--0--0--0--12/---| 
 
 
 
--------------------------|--------------------------| 
--------------------------|--------------------------| 
-----6--8--6-----6--8--6--|-----6--8--6-----6--8--6--| 
--0-----------0-----------|--0-----------0-----------| 
 
 
 
--------------------------|--------------------------| 
--------------------------|--------------------------| 
-----6--8--6-----6--8--6--|-----6--8--6-----6--8--6--| 
--0-----------0-----------|--0-----------0-----------| 
 
 
 
--------------------------|-------------------------|-------------------------| 
--------------------------|-------------------------|-------------------------| 
-----6--8--6-----6--8--6--|--5--5--5--5--5--5--6----|--5--5--5--5--5--5--6----| 
--0-----------0-----------|-------------------------|-------------------------| 
 
 
 
-------------------------|-------------------------|--------------------------| 
-------------------------|-------------------------|--------------------------| 
--5--5--5--5--5--5--6----|--5--5--5--5--5--5--6----|-----6--8--6-----6--8--6--| 
-------------------------|-------------------------|--0-----------0-----------| 
 
 
 
--------------------------|--------------------------| 
--------------------------|--------------------------| 
-----6--8--6-----6--8--6--|-----6--8--6-----6--8--6--| 
--0-----------0-----------|--0-----------0-----------| 
 
 
 
--------------------------|-------------------------|-------------------------| 
--------------------------|-------------------------|-------------------------| 
-----6--8--6-----6--8--6--|--5--5--5--5--5--5--6----|--5--5--5--5--5--5--6----| 
--0-----------0-----------|-------------------------|-------------------------| 
 
 
 
-------------------------|-------------------------|-------------------| 
-------------------------|-------------------------|-------------------| 
--5--5--5--5--5--5--6----|--5--5--5--5--5--5--6----|-------------------| 
-------------------------|-------------------------|--1----------------| 
 
 
 
------------------|-------------------|------------------|-------------------| 
------------------|-------------------|------------------|-------------------| 
------------------|-------------------|------------------|-------------------| 
------------------|--5----------------|------------------|--0----------------| 
 
 
 
------------------|-------------------|------------------|-------------------| 
------------------|-------------------|------------------|-------------------| 
------------------|-------------------|------------------|-------------------| 
------------------|--3----------------|------------------|--1----------------| 
 
 
 
------------------|-------------------|------------------|-------------------| 
------------------|-------------------|------------------|-------------------| 
------------------|-------------------|------------------|-------------------| 
------------------|--5----------------|------------------|--0----------------| 
 
 
 
------------------|-------------------|------------------| 
------------------|-------------------|------------------| 
------------------|-------------------|------------------| 
------------------|--3----------------|------------------| 
 
 
 
--------------------------|--------------------------| 
--------------------------|--------------------------| 
-----6--8--6-----6--8--6--|-----6--8--6-----6--8--6--| 
--0-----------0-----------|--0-----------0-----------| 
 
 
 
--------------------------|--------------------------|-------------------------| 
--------------------------|--------------------------|-------------------------| 
-----6--8--6-----6--8--6--|-----6--8--6-----6--8--6--|--5--5--5--5--5--5--6----| 
--0-----------0-----------|--0-----------0-----------|-------------------------| 
 
 
 
-------------------------|-------------------------|-------------------------| 
-------------------------|-------------------------|-------------------------| 
--5--5--5--5--5--5--6----|--5--5--5--5--5--5--6----|--5--5--5--5--5--5--6----| 
-------------------------|-------------------------|-------------------------| 
 
 
 
--------------------------|--------------------------| 
--------------------------|--------------------------| 
-----6--8--6-----6--8--6--|-----6--8--6-----6--8--6--| 
--0-----------0-----------|--0-----------0-----------| 
 
 
 
--------------------------|--------------------------|-------------------------| 
--------------------------|--------------------------|-------------------------| 
-----6--8--6-----6--8--6--|-----6--8--6-----6--8--6--|--5--5--5--5--5--5--6----| 
--0-----------0-----------|--0-----------0-----------|-------------------------| 
 
 
 
-------------------------|-------------------------|-------------------------| 
-------------------------|-------------------------|-------------------------| 
--5--5--5--5--5--5--6----|--5--5--5--5--5--5--6----|--5--5--5--5--5--5--6----| 
-------------------------|-------------------------|-------------------------| 
 
 
 
-------------------|------------------|-------------------|------------------| 
-------------------|------------------|-------------------|------------------| 
-------------------|------------------|-------------------|------------------| 
--1----------------|------------------|--5----------------|------------------| 
 
 
 
-------------------|------------------|-------------------|------------------| 
-------------------|------------------|-------------------|------------------| 
-------------------|------------------|-------------------|------------------| 
--0----------------|------------------|--3----------------|------------------| 
 
 
 
-------------------|------------------|-------------------|------------------| 
-------------------|------------------|-------------------|------------------| 
-------------------|------------------|-------------------|------------------| 
--1----------------|------------------|--5----------------|------------------| 
 
 
 
-------------------|------------------|-------------------|------------------| 
-------------------|------------------|-------------------|------------------| 
-------------------|------------------|-------------------|------------------| 
--0----------------|------------------|--3----------------|------------------| 
 
 
 
-------------------|------------------|------------------|------------------| 
-------------------|------------------|------------------|------------------| 
-------------------|------------------|------------------|------------------| 
--3----------------|------------------|------------------|------------------| 
 
 
 
------------------|------------------|------------------|------------------| 
------------------|------------------|------------------|------------------| 
------------------|------------------|------------------|------------------| 
------------------|------------------|------------------|------------------| 
 
 
 
------------------|------------------|--------------------------| 
------------------|------------------|--------------------------| 
------------------|------------------|--6--6--6--6--6--6--6--6--| 
------------------|------------------|--------------------------| 
 
 
 
--------------------------|--------------------------| 
--------------------------|--------------------------| 
--6--6--6--6--6--6--6--6--|--------------------------| 
--------------------------|--5--5--5--5--5--5--5--5--| 
 
 
 
--------------------------|--------------------------| 
--------------------------|--------------------------| 
--------------------------|--5--5--5--5--5--5--5--5--| 
--5--5--5--5--5--5--5--5--|--------------------------| 
 
 
 
--------------------------|--------------------------| 
--------------------------|--------------------------| 
--5--5--5--5--5--5--5--5--|--6--6--6--6--6--6--6--6--| 
--------------------------|--------------------------| 
 
 
 
--------------------------|-------------------------------| 
--------------------------|-------------------------------| 
--6--6--6--6--6--6--6--6--|--5----------------------------| 
--------------------------|-------0-0-0-0-0-0-0-0-0-0-0-0-| 
 
 
 
-------------------------------|-------------------------------| 
-------------------------------|-------------------------------| 
--5-0-5-0-5-0-5-0-5-0-5-0-6----|--5----------------------------| 
-------------------------------|-------0-0-0-0-0-0-0-0-0-0-0-0-| 
 
 
 
-------------------------|-------------------------------| 
-------------------------|-------------------------------| 
----------6----8----6----|--5----------------------------| 
--0-0-0-0----------------|-------0-0-0-0-0-0-0-0-0-0-0-0-| 
 
 
 
-------------------------------|-----------------------------| 
-------------------------------|-----------------------------| 
--5-0-5-0-5-0-5-0-5-0-5-0-6----|--5--------------------------| 
-------------------------------|-------0-0-0-0-0-0-0-0-12/---| 
 
 
 
--------------------------|-------------------------| 
--------------------------|-------------------------| 
-----6--8--6-----6--8--6--|--5----------------------| 
--0-----------0-----------|-------0--0--0--0--0--0--| 
 
 
 
-------------------------------|-------------------------| 
-------------------------------|-------------------------| 
--5-0-5-0-5-0-5-0-5-0-5-0-6----|--5----------------------| 
-------------------------------|-------0--0--0--0--0--0--| 
 
 
 
-----------------------|-------------------------| 
-----------------------|-------------------------| 
--------6----8----6----|--5----------------------| 
--0--0-----------------|-------0--0--0--0--0--0--| 
 
 
 
-------------------------------|-------------------------| 
-------------------------------|-------------------------| 
--5-0-5-0-5-0-5-0-5-0-5-0-6----|--5----------------------| 
-------------------------------|-------0--0--0--0--12/---| 
 
 
 
--------------------------|-------------------|------------------| 
--------------------------|-------------------|------------------| 
-----6--8--6-----6--8--6--|-------------------|------------------| 
--0-----------0-----------|--1----------------|------------------| 
 
 
 
-------------------|------------------|-------------------|------------------| 
-------------------|------------------|-------------------|------------------| 
-------------------|------------------|-------------------|------------------| 
--5----------------|------------------|--0----------------|------------------| 
 
 
 
-------------------|------------------|-------------------|------------------| 
-------------------|------------------|-------------------|------------------| 
-------------------|------------------|-------------------|------------------| 
--3----------------|------------------|--1----------------|------------------| 
 
 
 
-------------------|------------------|-------------------|------------------| 
-------------------|------------------|-------------------|------------------| 
-------------------|------------------|-------------------|------------------| 
--5----------------|------------------|--0----------------|------------------| 
 
 
 
-------------------|------------------|-------------------|------------------| 
-------------------|------------------|-------------------|------------------| 
-------------------|------------------|-------------------|------------------| 
--3----------------|------------------|--3----------------|------------------| 
 
 
 
--------------------------|-------------------------------| 
--------------------------|-------------------------------| 
--5-----------5-----------|--5-0-5-0-5-0-5-0-5-0-5-0-6----| 
-----0--0--0-----0--0--0--|-------------------------------| 
 
 
 
--------------------------|-----------------------|--------------------------| 
--------------------------|-----------------------|--------------------------| 
--5-----------5-----------|--------6----8----6----|--5-----------5-----------| 
-----0--0--0-----0--0--0--|--0--0-----------------|-----0--0--0-----0--0--0--| 
 
 
 
-------------------------------|--------------------------| 
-------------------------------|--------------------------| 
--5-0-5-0-5-0-5-0-5-0-5-0-6----|--5-----------5-----------| 
-------------------------------|-----0--0--0-----0--0--0--| 
 
 
 
--------------------------|-------------------|| 
--------------------------|-------------------|| 
-----6--8--6-----6--8--6--|--5----------------|| 
--0-----------0-----------|-------------------|| 
 
10.OLD SCHOOL HOLLYWOOD 
 
Tuning: Drop Db (Db Ab Db Gb) 
 
 
 
intro: 
 
Gb|----------------------------------------------------------------|| 
Db|-1-5---1-5---1-5---1-5------------------------------------------|| 
Ab|----------------------------------------------------------------|| 
Db|----------------------------------------------------------------|| 
 
 
Gb|----------------------------------------------------------------|| 
Db|----------------------------------------------------------------|| 
Ab|----------------------------------------------------------------|| 
Db|-0-5-7-5-8-5-7-5------------------------------------------------||(x8) 
 
verse: 
 
Gb|-0-5-7-5-8-5-7-5-0-5-7-5-8-5-7-5--------------------------------|| 
Db|---------------------------------0-5-7-5-8-5-7-5-0-5-7-5-8-5-7-5|| 
Ab|----------------------------------------------------------------|| 
Db|----------------------------------------------------------------||(x2) 
 
pre-Chorus: 
 
Gb|----------------------------------------------------------------|| 
Db|----------------------------------------------------------------|| 
Ab|-6-6-6-6-6-6-6-6-5-5-5-5-5-5-5-5-6-6-6-6-6-6-6-6-8-8-8-8-8-8-8-8|| 
Db|----------------------------------------------------------------||(x2) 
 
Chorus: 
 
Gb|----------------------------------------------------------------|| 
Db|----------------------------------------------------------------|| 
Ab|----------------------------------------------------------------|| 
Db|-0-5-7-5-8-5-7-5-0-5-7-5-8-5-7-5-0-5-7-5-8-5-7-5-0-5-7-5-8-7-5-3|| 
 
 
Gb|----------------------------------------------------------------|| 
Db|----------------------------------------------------------------|| 
Ab|---------5---3--------------------------------------------------|| 
Db|-1---1-----------0---0---4---7----------------------------------|| 
 
bridge: 
 
Gb|-8-8-8-8-8-8-8-8-7-7-7-7-7-7-7-7-8-8-8-8-8-8-8-8----------------|| 
Db|----------------------------------------------------------------|| 
Ab|----------------------------------------------------------------|| 
Db|----------------------------------------------------------------|| 
 
 
Gb|-10-10-10-10-10-10-10-10-8-8-8-8-8-8-8-8-7-7-7-7-7-7-7-7--------|| 
Db|----------------------------------------------------------------|| 
Ab|----------------------------------------------------------------|| 
Db|----------------------------------------------------------------|| 
 
 
Gb|-8-8-8-8-8-8-8-8-10-10-10-10-10-10-10-10-10-10-10-10-10-10-10-10|| 
Db|----------------------------------------------------------------|| 
Ab|----------------------------------------------------------------|| 
Db|----------------------------------------------------------------|| 
 
 
 
Gb|10-10-10-10-10-10-10-10-10-10-10-10-10-10-10-10-----------------|| 
Db|----------------------------------------------------------------|| 
Ab|----------------------------------------------------------------|| 
Db|----------------------------------------------------------------|| 
 
11.LOST IN HOLLYWOOD 
 
Verse  x2 
Gb|---------------------------------------|| 
Db|----2-2-2-2-2-2-2---2-2-2-2-2-2-2-2----|| 
Ab|-0-0---0---0---0---0-0---0---0---0-----|| 
Db|---------------------------------------|| 
 
Gb|------------------------------------------------|| 
Db|--2-2-2-2-2-2-2-2-2-2-2-2-2-2-2-----------------|| 
Ab|-0-0---0---0---0---0---0---0---0----------------|| 
Db|------------------------------------------------|| 
 
Gb|-------------5-4--------------------------------|| 
Db|-----------------22-2-22-2-2-2-2----------------|| 
Ab|--3-3-------------------------------------------|| 
Db|------------------------------------------------|| 
 
  Then 
Gb|--------------------------------|| 
Db|-222222-333333-999999-777777----|| 
Ab|--------------------------------|| 
Db|--------------------------------|| 
 
Gb|--------------------------------|| 
Db|-222222-333333-999999-777777----|| 
Ab|--------------------------------|| 
Db|--------------------------------|| 
 
 
Gb|-----------------------------------------|| 
Db|-222222-333333-121212121212-141414141414-|| 
Ab|-----------------------------------------|| 
Db|-----------------------------------------|| 
 
Than the Drums 
 
   Verse x2 
Gb|---------------------------------------|| 
Db|----2-2-2-2-2-2-2---2-2-2-2-2-2-2-2----|| 
Ab|-0-0---0---0---0---0-0---0---0---0-----|| 
Db|---------------------------------------|| 
 
Gb|------------------------------------------------|| 
Db|--2-2-2-2-2-2-2-2-2-2-2-2-2-2-2-----------------|| 
Ab|-0-0---0---0---0---0---0---0---0----------------|| 
Db|------------------------------------------------|| 
 
Gb|-------------5-4--------------------------------|| 
Db|-----------------22-2-22-2-2-2-2----------------|| 
Ab|--3-3-------------------------------------------|| 
Db|------------------------------------------------|| 
 
   Chorus x5 
Gb|----------------------------------------------------------------|| 
Db|----------------------------------------------------------------|| 
Ab|---3-3333-3-3---------------------------------------------------|| 
Db|---------------5-5555-5-5---7-7777--7-7--2-222-3-333------------|| 
 
   Bridge 
Gb|-----------------------------------|| 
Db|-----------------------------------|| 
Ab|---0---2-----5---3---2-------------|| 
Db|-----------------------------------|| 
 
Gb|-------------7~--5~--7-5--4~-------|| 
Db|-----------------------------------|| 
Ab|-----------------------------------|| 
Db|-----------------------------------|| 
 
Gb|--5~----4~---4-5-7~----5~-----7~----5~---7--5--4~--|| 
Db|---------------------------------------------------||Repeat 
Ab|---------------------------------------------------|| 
Db|---------------------------------------------------|| 
 
Gb|-----7~--5~--7-5--4~--|| 
Db|----------------------|| 
Ab|----------------------|| 
Db|----------------------|| 
 
   Chorus x6  
Gb|----------------------------------------------------------------|| 
Db|----------------------------------------------------------------|| 
Ab|---3-3333-3-3---------------------------------------------------|| 
Db|---------------5-5555-5-5---7-7777--7-7--2-222-3-333------------|| 
 
  Verse/Outro 
Gb|---------------------------------------|| 
Db|--2-2-2-2-2-2-2-2---2-2-2-2-2-2-2-2----|| 
Ab|-0-0---0---0---0---0-0---0---0---0-----|| 
Db|---------------------------------------|| 
 
Gb|------------------------------------------------|| 
Db|--2-2-2-2-2-2-2-2-2-2-2-2-2-2-2-----------------|| 
Ab|-0-0---0---0---0---0---0---0---0----------------|| 
Db|------------------------------------------------|| 
 
Gb|------------------------------------------------|| 
Db|-----5-5---------22-2-22-2-2-2-2----------------|| 
Ab|--3-3-------------------------------0~----------|| 
Db|------------------------------------------------|| 
 
Comments to the next mail: 
[email protected] 

Compartilhe esta música: novo

QR Code
Copiar