Hipnotyze

System Of A Down

Tom: G
 
Solo da Introdução) 
 
  Riff 1 (2x) 
E|-----------------------------------------------------| 
A|-----------------------------------------------------| 
D|---4---4--4--4--4--4--4--4---4----4----4----4----4---| 
G|-4---4---6--6--6--6--6--6---7-7--6-6--4-4--3-3--3-3--| 
B|-----------------------------------------------------| 
e|-----------------------------------------------------| 
  Riff 2 (2x) 
E|---------------------------------------| 
A|---------------------------------------| 
D|---------------------------------------| 
G|---------------------------------------| 
B|---7-6-9-7-11-9-12-11------------------| 
e|---------------------------------------| 
  Riff 3 
E|---------------------------------------| 
A|---------------------------------------| 
D|---------------------------------------| 
G|---------------------------------------| 
B|--14-12-11-9---12-11-9-7---10-9-7-6-7--| 
e|---------------------------------------|
Gb5 D5 Gb5 D5 Why don?t you ask the kids at Tiananmen Square? Gb5 D5 Gb5 D5 Was fashion the reason why they were there? Gb5 D5 Gb5 D5 They disguise it, hypnotize it Gb5 D5 Gb5 D5 Television made you buy it
 Riff 3 
E|---------------------------------------| 
A|---------------------------------------| 
D|---------------------------------------| 
G|---------------------------------------| 
B|--14-12-11-9---12-11-9-7---10-9-7-6----| 
e|---------------------------------------| 
I'm just sitting in my car and waiting for my.... Gb5 D5 Gb5 D5 She?s scared that I will take her away from there Gb5 D5 Gb5 D5 Dreams that her country left with no one there Gb5 D5 Gb5 D5 Mesmerize the simple minded Gb5 D5 Gb5 D5 Propaganda leaves us blinded
 Riff 3 
E|---------------------------------------| 
A|---------------------------------------| 
D|---------------------------------------| 
G|---------------------------------------| 
B|--14-12-11-9---12-11-9-7---10-9-7-6----| 
e|---------------------------------------| 
Gb5 D5 Gb5 D5 I'm just sitting in my car and waiting for my girl Gb5 D5 E5 A5 Db5 I'm just sitting in my car and waiting for my girl Gb,E,Gb,E.......... (Base do Solo)
 (Solo)   
E|-------------------------------------------| 
A|-------------------------------------------| 
D|-------------------------------------------| 
G|-------------------------------------------| 
B|--7-9-------------9--9-7-9--------9-9--7---| 
e|-----6-7-9-7-6-7---6-------6-7-6---6-------| 
 
E|-------------------------------------------| 
A|-------------------------------------------| 
D|-------------------------------------------| 
G|-------------------------------------------| 
B|--7-9-------------9--9-7-9--------9--------| 
e|-----6-7-9-7-6-7---6-------6-7-6---6--7-9--| 
    
  Riff (2x) 
E|---------------------------------------| 
A|---------------------------------------| 
D|---------------------------------------| 
G|---------------------------------------| 
B|---7-6-9-7-11-9-12-11------------------| 
e|---------------------------------------|
Gb5 D5 E5 A5 Db5 I'm just sitting in my car and waiting for my girl Gb,E,Gb,E................. Gb5 D5 E5 A5 Db5 I'm just sitting in my car and waiting for my......... Girl...................
  (Solo Final)                                   (Gb) 
E|-------------------------------------------------2-----| 
A|-------------------------------------------------4-----| 
D|---4---4--4--4--4--4--4--4---4----4----4---------4-----| 
G|-4---4---6--6--6--6--6--6---7-7--6-6--4-4?-4h6---5-----| 
B|-------------------------------------------------------| 
e|-------------------------------------------------------|

Compartilhe esta música: novo

QR Code
Copiar