Tom: Eb
 

Riff 1 
d|-----------------------------------------------------------------| 
A|-----------------------------------------------------------------| 
F|-----------------------------------------------------------------| 
C|-----0-----0-----0-----0-----0-------0-----0-----0-----0-----0---| 
G|---0-----0-----0-----0-----0-------0-----0-----0-----0-----0-----| 
C|-3-----2-----0-----0-----0-----0-5-----3-----2-----2-----2-----2-| 
   

   
d|----------------------------------------------------------------| 
A|----------------------------------------------------------------| 
F|----------------------------------------------------------------| 
C|------0-----0-----0-----0---0---------0-----0-----0----0----0---| 
G|----0-----0-----0-----0---------0---0-----0-----0-----0----0----| 
C|--3-----5-----7-----8-----7---5---3-----2-----0-----0----0----0-| 


  
d|---------------------------------------------------------------------| 
A|---------------------------------------------------------------------| 
F|---------------------------------------------------------------------| 
C|------0------0-----0-----0-----0--------0------0-----0-----0-----0---| 
G|----0------0-----0-----0-----0--------0------0-----0-----0-----0-----| 
C|-12-----10-----7-----7-----7-----7-14-----10-----7-----7-----7-----7-| 


d|---------------------------------------------------------------------------------| 
A|---------------------------------------------------------------------------------| 
F|---------------------------------------------------------------------------------| 
C|------0------0------0------0----0---------------------------0--0--0--0--0--0--0--| 
G|----0------0------0------0-----------0-------------0----0---0--0--0--0--0--0--0--| 
C|-12-----14-----15-----17-----15---14-----12-12--10---12-----12-12-12-12-12-12-12-| 


riff 2 
       
d|----------------------------------------------------------------------------| 
A|----------------------------------------------------------------------------| 
F|-----------------------------------12~----------10~----------9~----------7~0| 
C|-8---8--8-8--8-8--8-8-8-8----------x------------x------------x-----------x-0| 
G|-8---8--8-8--8-8--8-8-8-8--0-0-0-0-10~--0-0-0-0-8~~--0-0-0-0-7~--0-0-0-0-5~0| 
C|-8---8--8-8--8-8--8-8-8-8--0-0-0-0------0-0-0-0------0-0-0-0-----0-0-0-0----| 
                         pm.....       pm.....       pm.....      pm..... 

                        (2x) 
d|--------------------------| 
A|--------------------------| 
F|--------------------------| 
C|-8---8--8-8--8-8--8-8-8-8-| 
G|-8---8--8-8--8-8--8-8-8-8-| 
C|-8---8--8-8--8-8--8-8-8-8-| 

riff 1 (2x) 

riff 2 

ponte 
             (2x) 
d|-----------------| 
A|-----------------| 
F|-----------------| 
C|-7-7-7-7-7-7-7-7-| 
G|-7-7-7-7-7-7-7-7-| 
C|-7-7-7-7-7-7-7-7-| 
   pm.............. 

interlúdio 

d|---------|---------|--------------------|--------------| 
A|---------|---------|--------------------|--------------| 
F|---------|---------|--------------------|--------------| 3x 
C|-3--2--0-|-5--3--2-|--3--5--7--8--7--5--|-3--2--0------| 
G|-3--2--0-|-5--3--2-|--3--5--7--8--7--5--|-3--2--0------| 
C|-3--2--0-|-5--3--2-|--3--5--7--8--7--5--|-3--2--0---14\| 

riff 1 (4x) 

Intro: (Riff 1) (Riff 2) life is a waterfall, We’re one in the river And one again after the fall (Riff 2) Swimming through the void / We hear the word We lose ourselves / But we find it all (Riff 2) Cause we are the ones that want to play Always want to go But you never want to stay (Riff 2) we are the ones that want to choose Always want to play But you never wanna lose (Riff 1) (Riff 1) Aerials, in the sky When you lose small mind You free your life (Riff 2) Life is a waterfall We're one in the river And one again after the fall (Riff 2) Swimming through the void We hear the word (Riff 2) We lose ourselves, But we find it all (Riff 2) Cause we are the ones that want to play Always wanna go, But you never want to stay (Riff 2) we are the ones that want to choose Always wanna to play (Riff 2) But you never wanna lose Bridge: (Interlúdio) (Interlúdio) (Interlúdio) Aerials, in the sky When you lose small mind You free your life Aerials, so up high When you free your eyes eternal prize (Riff 1) Aerials, in the sky When you lose small mind You free your life Aerials, so up high When you free your eyes eternal prize End: (Riff 1)

Compartilhe esta música: novo

QR Code
Copiar