Tom: Cm

Verso 1:

Cm Eb Ficai em jerusalém, até que do alto sejais Gm Revestidos de poder Cm Eu mandarei o consolador Eb Gm E quando vier ele dará graça e temor

Pré-Refrão

Ab Uns desistiram voltaram pra casa Cm Eb Mas 120 ali ficaram, quando de repente Ouviu se um som Bb E dos quatros cantos um vento soprou
Cm Vem como labareda de fogo Ab Vem como labareda de fogo Eb E pousa sobre cada um de nós Gm E pousa sobre cada um de nós Cm Vem como labareda de fogo Ab Vem como labareda de fogo Eb E pousa sobre cada um de nós Gm E pousa sobre cada um de nós
Solo Cm Ab Eb Gm Cm Ab Eb Gm
   Cm               Ab 
E|-------------------------------------------| 
B|-13--15--16-13---------13--15--16-13-------| 
G|-------------------------------------------| 
D|-------------------------------------------| 
A|-------------------------------------------| 
E|-------------------------------------------|
   Eb              Gm 
E|-------------------------------------------| 
B|-11----------------11----------------------| 
G|--------------12---------------------------| 
D|-------------------------------------------| 
A|-------------------------------------------| 
E|-------------------------------------------|
   Cm               Ab 
E|-20--22--23-20-------20--22--23-20---------| 
B|-------------------------------------------| 
G|-------------------------------------------| 
D|-------------------------------------------| 
A|-------------------------------------------| 
E|-------------------------------------------|
   Eb                Gm 
E|-------------------------------------------| 
B|-23-----------20----23---------------------| 
G|-------------------------------------------| 
D|-------------------------------------------| 
A|-------------------------------------------| 
E|-------------------------------------------|

Pré-Refrão

Ab Uns desistiram voltaram pra casa Cm Eb Mas 120 ali ficaram, quando de repente Ouviu se um som Bb E dos quatros cantos um vento soprou
( Cm Ab Eb Gm ) ( Cm Ab Eb Gm )
Cm Vem como labareda de fogo Ab Vem como labareda de fogo Eb E pousa sobre cada um de nós Gm E pousa sobre cada um de nós Cm Vem como labareda de fogo Ab Vem como labareda de fogo Eb E pousa sobre cada um de nós Gm E pousa sobre cada um de nós

Ponte:

Fm Vem com teu fogo Cm Reacende a chama sopra teu vento Eb Vem nos inflama, aqui estamos senhor Gm Aqui estamos senhor Fm Vem com teu fogo Cm Reacende a chama sopra teu vento Eb Vem nos inflama, aqui estamos senhor Gm Aqui estamos senhor
Cm Vem como labareda de fogo Bb Vem como labareda de fogo Fm E pousa sobre cada um de nós Gm E pousa sobre cada um de nós Cm Vem como labareda de fogo Bb Vem como labareda de fogo Fm E pousa sobre cada um de nós Gm E pousa sobre cada um de nós Ab Vem como labareda de fogo Bb Vem como labareda de fogo Cm E pousa sobre cada um de nós Bb E pousa sobre cada um de nós

Compartilhe esta música: novo

QR Code
Copiar