Di Domenica

Subsonica

Tom: C#
Guitar solo part 1 
e---9-----9-----9--9-----9---------6-----6-----6----4-----4---------------------| 
B-----9-----9--------7-----7---7-----7-----7----------7-----7---7---------------| 
G-------6-----6--------6-----6---------4-----4----------6-----6-----------------| 
D-------------------------------------------------------------------------------| 
A-------------------------------------------------------------------------------| 
E-------------------------------------------------------------------------------| 

Guitar solo part 2 
e----------------------------------------------------------------| 
B-2/7--7---------------------------------------------------------| 
G-----------3/6----3--3-----4--3----1----------------------------| 
D----------------------4-----------------------------------------| 
A----------------------------------------------------------------| 
E----------------------------------------------------------------|
(Intro) * Guitar solo part 1 * * Guitar solo part 2 * - part 1 - C# F# B F# Sai che c'è, ormai è giorno, è domenica C# F# B F# non avrai paura di me né di un peccato C# F# B F# C# F# B F# Nel vuoto del letto dolce di una domenica
C# B sono cambiamenti solo se spaventano D#m F# sono sentimenti
- Instrumental - C# F# B F# - part 2 - C# F# B F# Anche se domani sarò un rimorso C# F# B F# forse puoi abbandonarti di domenica
C# B sono cambiamenti solo se spaventano D#m F# sono sentimenti C# B tutti i giuramenti oggi che è domenica D#m F# sono adolescenti
- Pre-Chorus - ( play on guitar solo part 1 or with chords ) 1x Instrumental riff C# F# B F# or solo part 1 / 2 C# F# Capovolgi il tuo destino, B F# sarò sempre qua, sarò sempre qua C# F# capovolgi il tuo cuscino, B F# di domenica, di domenica - Chorus 3 - C# B sono cambiamenti solo se spaventano D#m F# sono sentimenti C# B tutti i giuramenti oggi che è domenica D#m F# sono adolescenti C# B sono cambiamenti solo se spaventano D#m F# sono sentimenti C# B tutti i giuramenti oggi che è domenica D#m F# sono adolescenti

Compartilhe esta música: novo

QR Code
Copiar