Taciturn (acoustic)

Stone Sour

Tom: Am
Intro: 
       Am 
db|----0----------0-----------------------------------------------------------| 
Ab|-----1----12x--1-----------------------------------------------------------| 
Fb|------2--------2-----------------------------------------------------------| 
Cb|---------------2-----------------------------------------------------------| 
Gb|---------------------------------------------------------------------------| 
Db|---------------------------------------------------------------------------| 

Across the sea to you... 
      Am         G         Dsus2 
db|---------------------------------------------------------------------------| 
Ab|---1---------3----------3--------------------------------------------------| 
Fb|----2--4x-----0--4x------2--4x---------------------------------------------| 
Cb|-----2---------0----------0------------------------------------------------| 
Gb|---------------------------------------------------------------------------| 
Db|---------------------------------------------------------------------------| 

0:30 
     Am       G         Dsus2   Am         Am 
db|----------------------------------------0----------------------------------| 
Ab|--1--------3---------3--------1---------1----------------------------------| 
Fb|---2---4x---0---4x----2--4x----2---2x---2----------------------------------| 
Cb|----2--------0---------0--------2-------2----------------------------------| 
Gb|---------------------------------------------------------------------------| 
Db|---------------------------------------------------------------------------| 

In the middle...cold-black-sky 
     G              Am 
db|-----------------000-------------------------------------------------------| 
Ab|--3--------------111-------------------------------------------------------| 
Fb|---0----4x-------222-------------------------------------------------------| 
Cb|----0------------222-------------------------------------------------------| 
Gb|---------------------------------------------------------------------------| 
Db|---------------------------------------------------------------------------| 

The sun can only burnt for you... 
      G         Am 
db|---------------------------------------------------------------------------| 
Ab|---3---------1-------------------------------------------------------------| 
Fb|----0---4x----2---4x-------------------------------------------------------| 
Cb|-----0---------2-----------------------------------------------------------| 
Gb|---------------------------------------------------------------------------| 
Db|---------------------------------------------------------------------------| 

In a moment... lose-my-mind 
     G              Am 
db|-----------------000-------------------------------------------------------| 
Ab|--3--------------111-------------------------------------------------------| 
Fb|---0----4x-------222-------------------------------------------------------| 
Cb|----0------------222-------------------------------------------------------| 
Gb|---------------------------------------------------------------------------| 
Db|---------------------------------------------------------------------------| 

1:10 
     G        Dsus2     Am      G      Dsus2 
db|---------------------------------------------------------------------------| 
Ab|--3--------3---------1-------3------3--------------------------------------| 
Fb|---0---4x---2---4x----2--4x---0--4x--2---4x--------------------------------| 
Cb|----0--------0---------2-------0------0------------------------------------| 
Gb|---------------------------------------------------------------------------| 
Db|---------------------------------------------------------------------------| 

I´ll tell you everything 
     C 
db|---------------------------------------------------------------------------| 
Ab|--1------------------------------------------------------------------------| 
Fb|---0---4x------------------------------------------------------------------| 
Cb|----2----------------------------------------------------------------------| 
Gb|---------------------------------------------------------------------------| 
Db|---------------------------------------------------------------------------| 

Give me a gign                           
     G        Dsus2     Am      C       C 
db|-------------------------------------0-------------------------------------| 
Ab|--3--------3---------1-------1-------1-------------------------------------| 
Fb|---0---4x---2---4x----2--4x---0--4x--0-------------------------------------| 
Cb|----0--------0---------2-------2-----2-------------------------------------| 
Gb|---------------------------------------------------------------------------| 
Db|---------------------------------------------------------------------------| 

Across the world for you 
      Am          G         Dsus2 
db|---------------------------------------------------------------------------| 
Ab|---1----------3---------3--------------------------------------------------| 
Fb|----2-----4x---0----4x---2--4x---------------------------------------------| 
Cb|-----2----------0---------0------------------------------------------------| 
Gb|---------------------------------------------------------------------------| 
Db|---------------------------------------------------------------------------| 

I'd cross the world for you 
     Am       G         Dsus2   Am 
db|---------------------------------------------------------------------------| 
Ab|--1--------3---------3-------1---------------------------------------------| 
Fb|---2---4x---0---4x----2--4x---2-3x-----------------------------------------| 
Cb|----2--------0---------0-------2-------------------------------------------| 
Gb|---------------------------------------------------------------------------| 
Db|---------------------------------------------------------------------------| 

In the middle...clear-blue-sky 
     G              Am 
db|-----------------000-------------------------------------------------------| 
Ab|--3--------------111-------------------------------------------------------| 
Fb|---0----4x-------222-------------------------------------------------------| 
Cb|----0------------222-------------------------------------------------------| 
Gb|---------------------------------------------------------------------------| 
Db|---------------------------------------------------------------------------| 

The sun can only burnt... 
      G         Am 
db|---------------------------------------------------------------------------| 
Ab|---3---------1-------------------------------------------------------------| 
Fb|----0---4x----2---4x-------------------------------------------------------| 
Cb|-----0---------2-----------------------------------------------------------| 
Gb|---------------------------------------------------------------------------| 
Db|---------------------------------------------------------------------------| 

In a moment... lose-my-mind 
     G              Am 
db|-----------------000-------------------------------------------------------| 
Ab|--3--------------111-------------------------------------------------------| 
Fb|---0----4x-------222-------------------------------------------------------| 
Cb|----0------------222-------------------------------------------------------| 
Gb|---------------------------------------------------------------------------| 
Db|---------------------------------------------------------------------------| 

These hours don't mean anything... 
     G        Dsus2    Dsus2 
db|---------------------------------------------------------------------------| 
Ab|--3--------3--------3------------------------------------------------------| 
Fb|---0---4x---2---3x--2--don´t let ring--------------------------------------| 
Cb|----0--------0------0------------------------------------------------------| 
Gb|---------------------------------------------------------------------------| 
Db|---------------------------------------------------------------------------| 

Then strumm the chords: Am Give me a sign G Show me the light Dsus2 (2x) Maybe tonight C Ill tell you everything Bridge: G Dsus2 Am Am (3x) then G - Dsus2 and stop then Am Give me a sign G Show me the light Dsus2 (3x) Maybe tonight C Ill tell you everything Everything!
End on 
       Am 
db|----0----------0~----------------------------------------------------------| 
Ab|-----1----6x---1~----------------------------------------------------------| 
Fb|------2--------2~----------------------------------------------------------| 
Cb|---------------2~----------------------------------------------------------| 
Gb|---------------0~----------------------------------------------------------| 
Db|---------------------------------------------------------------------------|

Compartilhe esta música: novo

QR Code
Copiar