Worry Fill My Heart

Spring Offensive

Tom: F#m
           During the 'All I need...' 
   D 
e|---------------------------------------------| 
H|---------------------------------------------| 
G|-----11---------11---------11---------11-----| 
D|---------12---------12---------12---------12-| 
A|-12---------12---------12---------12---------| 
E|---------------------------------------------| 

   F#m         -           A        E 
e|---------------------------------------------| 
H|---------------------------------------------| 
G|----- 2--------- 2--------- 6--------- 1-----| 
D|--------- 4--------- 4--------- 7--------- 2-| 
A|- 4--------- 4--------- 7--------- 2---------| 
E|---------------------------------------------| 

   D 
e|---------------------------------------------| 
H|---------------------------------------------| 
G|-----11---------11---------11---------11-----| 
D|---------12---------12---------12---------12-| 
A|-12---------12---------12---------12---------| 
E|---------------------------------------------| 

   F#m         -          E 
e|---------------------------------------------| 
H|---------------------------------------------| 
G|----- 2--------- 2--------- 1--------- 1-----| 
D|--------- 4--------- 4--------- 2--------- 2-| 
A|- 4--------- 4--------- 2--------- 2---------| 
E|---------------------------------------------| 

Intro: Dmaj7 F#m E (4x) Dmaj7 F#m E Oh me oh my hearts just not in this Dmaj7 F#m E I felt a lagging beat since my career path shifted Dmaj7 F#m E I asked no one for the life I'm leading ( Dmaj7 ) It dragged me in both feet first F#m E A With my tie tied too tight and an ear pressed to the clock F#m E A I am counting down the seconds until my shift is up F#m E A Don't mention how stale we feel or we will both grind to halt D F#m A E All I need D F#m E is just a couple of hundred D F#m A E It should keep me for a few weeks D F#m E I'm like a child to be asking Oh me oh my balance is pitching And as the panic swelled my chest, my head is splitting I can control if I just keep breathing I've been through this routine before F#m E A And if I can't pay my rent then I'm completely dependant F#m E A I never thought that I would be so in line with convention F#m E A How dare I even think that I could be any exception D F#m A E All I need D F#m E is just a couple of hundred D F#m A E It should keep me for a few weeks D F#m E I'm like a child to be asking D F#m E D Worry fill my heart F#m E I would end up in a job like this Worry fill my heart Maybe tomorrow I'll go ahead and quit D F#m A E All I need D F#m E is just a couple of hundred D F#m A E It should keep me for a few weeks D F#m E I'm like a child to be asking D F#m A E I never thought that I would end up in a job like this D I'm an impulsive man so so so, F#m E Maybe tomorrow I'll go ahead and quit

Compartilhe esta música: novo

QR Code
Copiar