Trátame suavemente

Soda Stereo

Tom: D
Intro: 

e/----------10-----------10--------10------------10-----------10-------10--- 
B/-----10-----------10--------10------------10------------10-------10------
G/--7------------7------------------------9------------9------------------------- 
D/----------------------------------------------------------------------------------
A/----------------------------------------------------------------------------------
E/--------------------------------------------------------------------------------- 
D A C Bm7 A Alguien me ha dicho que la soledad, se esconde tras sus ojos D A C Bm7 A Y que tu blusa atora sentimientos, que respiras D A C Bm7 A Tenes que comprender que no puse tus miedos donde estan guardados D A C Bm7 A Y que no podre quitartelos, si al hacerlo me desgarras G A F#m Bm7 No quiero soñar mil veces las mismas cosas G A F#m Bm7 Ni contemplarlas sabiamente G A F#m Bm7 * Quiero que me trates suavemente *
e/---0------------------------ 
B/------0--1------------------
G/------------0--------------- 
D/---------------0------------
A/----------------------------
E/---------------------------- 
D A C Bm7 A Te comportas de acuerdo con lo que te dicta cada momento D A C Bm7 A Y esta inconstancia no es algo heroico es mas bien algo enfermo G A F#m Bm7 No quiero soñar mil veces las mismas cosas G A F#m Bm7 Ni contemplarlas sabiamente G A F#m Bm7 Quiero que me trates suavemente Bm7 Em C x4 Uhhh... (SOLO) Repite No quiero soñar... 'Quiero que me trates...suavemente' x2 'Suavemente'x3

Compartilhe esta música: novo

QR Code
Copiar