I Saw The Sun

Slowdive

Tom: C
F C G Hey, I Saw The Sun and It moves F C Hey, I Saw The Sun F C G Hey, I Saw The Sun and It moves
C F C F Verse: C F C F Under the moon now, you can tell by the night C F C F Don't stare at the moon now, makes me so sad C G You were always sitting here with wings, I feel all alone F C And those tears in your eyes, they make me feel much better C G A journey through the woods, see you run, I belong here F C And those tears in your eyes, they make me feel much better
F C Hey, I saw the sun F C G Hey, I saw the sun and it moves F C Hey, I saw the sun G Hey, I saw the sun and it moves
   F                                   C 
e|---------------------------------------------------------------| 
B|-10-10-10-10-10-10-10-10-10-10-10-10-8-8-8-8-8-8-8-8-----------| 
G|-10-10-10-10-9--9--9--9--10-10-10-10-9-9-9-9-9-9-9-9-----------| 
D|---------------------------------------------------------------| 
A|---------------------------------------------------------------| 
E|---------------------------------------------------------------| 
   F                                   C           G 
e|-------------------------------------10-10-12-12-10-10---------| 
B|-10-10-10-10-10-10-10-10-10-10-10-10-12-12-12-12-12-12---------| 
G|-10-10-10-10-9--9--9--9--10-10-10-10---------------------------| 
D|---------------------------------------------------------------| 
A|---------------------------------------------------------------| 
E|---------------------------------------------------------------| (x2)

Compartilhe esta música: novo

QR Code
Copiar