Périplo

Skank

Tom: Dm
Introdução: Dm | Bb | Gm 

 
E|----------------------------------------- 
B|-----1-3--1-1-----------------1-3--1-1--- 
G|-2-2----------2-0---------2-2------------   (2x) 
D|-----------------3-2-0------------------- 
A|----------------------------------------- 
E|----------------------------------------- 
Dm Bb Gm Meus olhos, périplo Dm Bb Gm Desejam alcançar Dm Bb Gm Seus olhos perdem luz Dm Bb Gm Na imensidão do mar Dm Bb Gm Eles fogem longe, implodem em mim Dm Bb Gm Explodem hoje, escorrem Dm Bb Gm Eles podem ir onde somem, sim Dm Bb Gm Se mordem, escondem, correm Riff (Guitarra c/ distorção):
 
E|------------------------------------------------- 
B|-10------8-10-8----8-8---------8-10-8----8------- 
G|----7-10--------10-----7--7-10--------10---10-7-- 
D|------------------------------------------------- 
A|------------------------------------------------- 
E|------------------------------------------------- 

E|------------------------------------------------- 
B|---------8-10-8----8------------8-10-8----8------ 
G|----7-10--------10---10-7--7-10--------10---10--- 
D|------------------------------------------------- 
A|------------------------------------------------- 
E|------------------------------------------------- 
Dm Bb Gm Meus olhos pedem-nos Dm Bb Gm A rendição fugaz Dm Bb Gm Seus olhos ferem cruz Dm Bb Gm Na dentição voraz Dm Bb Gm Eles fogem longe, implodem em mim Dm Bb Gm Explodem hoje, escorrem Dm Bb Gm Eles podem ir onde somem, sim Dm Bb Gm Se mordem, escondem, correm C Sem jamais Bb F Ter hora e entra agora, dentro, embora C Queira mais Bb F C Melhora apenas quando chega logo aqui
 
E|----------------------------------------- 
B|-----1-3--1-1-----------------1-3--1-1--- 
G|-2-2----------2-0---------2-2------------   (2x) 
D|-----------------3-2-0------------------- 
A|----------------------------------------- 
E|----------------------------------------- 
Dm Bb Gm Seus olhos prego em cruz Dm Bb Gm O meu prazer brutal Dm Bb Gm Meus olhos querem-nos Dm Bb Gm Na perdição vulgar Dm Bb Gm Eles fogem longe, implodem em mim Dm Bb Gm Explodem hoje, escorrem Dm Bb Gm Eles podem ir onde somem, sim Dm Bb Gm Se mordem, escondem, correm C Sem jamais Bb F Ter hora e entra agora, dentro, embora C Queira mais Bb F Melhora apenas quando chega logo C Sem jamais Bb F Ter hora e entra agora, dentro, embora C Queira mais Bb F C Melhora apenas quando chega logo aqui Ponte: G | Bb | F C Sem jamais Bb F Ter hora e entra agora, dentro, embora C Queira mais Bb F Melhora apenas quando chega logo C Sem jamais Bb F Ter hora e entra agora, dentro, embora C Queira mais Bb F C Melhora apenas quando chega logo aqui

Compartilhe esta música: novo

QR Code
Copiar