Mil Acasos (ver. Luau)

Skank

Tom: D
  
Afinação: Eb Ab Db Gb Bb eb 


  

Intro:                   parte so de acordes Bm A/B    
 e|-------------------------------------------------------------|   
 B|----------3-3---------3-3------------------------------------|  
 G|-2-4-4-2--2-2-2-4-4-2-2-2-2----------------------------------|     
 D|- -0-0----0-0---0-0---0-0------------------------------------|  
 A|-------------------------------------------------------------|  
 E|-------------------------------------------------------------|  
Riff Verso  
 e|------------------------------------------------------------|  
 B|------------------------------------------------------------|  
 G|------------------4-4-4-------------------------------------|  
 D|------------------------4-----------------------------------|  
 A|---5--7/9-7-5-7/9-------------------------------------------|  
 E|-7----------------------------------------------------------|  
D Bm Bm C#m D Mil acasos me levam a você D Bm Bm F#m G O sábado, o signo, o carnaval G A Mil acasos me tomam pela mão A feira, o feriado nacional D Bm Bm C#m D Mil acasos me levam a perder D Bm F#m G O senso, o ritmo habitual G A Mil acasos me levam a você G No início, no meio ou no final A Me levam a você De um jeito desigual Em Quem sabe, então, por um acaso Bm Perdido no tempo ou no espaço Bb9 A Seus passos queiram se juntar aos meus Bb9 A Seus braços queiram se juntar aos meus
   
solo   
 e|-------------------------------------------------------------|  
 B|--------5b7r5-3-5b7r5b7r5-----------2-3-2--------------------|  
 G|----------------------------------4-------4------------------|    
 D|-------------------------------------------------------------|  
 A|-------------------------------------------------------------|  
 E|-------------------------------------------------------------|  
 
G A Mil acasos me dizem o que sou G Ateu praticante, ocidental A Me levam a você De um jeito desigual Em Quem sabe, então, por um acaso Bm Perdido no tempo ou no espaço Bb9 A Seus passos queiram se juntar aos meus Bb9 A Seus braços queiram se juntar aos meus
solo Final  

 e|-5-3-2-1-----------------------------------------------------|  
 B|-------------------------------------------------------------|  
 G|-------------------------------------------------------------|  
 D|-------------------------------------------------------------|  
 A|-------------------------------------------------------------|  
 E|-------------------------------------------------------------|  


 e|-------------------------------------------------------------|  
 B|-------------------2-3-2-------------------------------------|  
 G|-----------------4-------4-----------------------------------|  
 D|-------------------------------------------------------------|  
 A|-------------------------------------------------------------|  
 E|-------------------------------------------------------------|   
Termina em D

Compartilhe esta música: novo

QR Code
Copiar