Bola De Meia, Bola De Gude

Skank

Tom: G
Intro: G C9 G C9 

 
              G             C9 
E|-----------------------------| 
B|-15-12-----------------------| 
G|------14-12-12-14-12---------| 
D|--------------------14-12-12-| 
A|-----------------------------| 
E|-----------------------------| 
 
              G                C9 
E|--------------------------------| 
B|-15-12--------------------------| 
G|------14-12-12-12-14-12---------| 
D|-----------------------14-12-12-| 
A|--------------------------------| 
E|--------------------------------| 
 
           G                C9             G         C9 
E|--------------------------------12-12------------| 
B|-----------------------15-15-15------13-13-15-15-| 
G|------12-12-12-14-14-14--------------------------| 
D|-12-12-------------------------------------------| 
A|-------------------------------------------------| 
E|-------------------------------------------------| 
G C9 Há um menino, há um moleque G C9 Morando sempre no meu coração G C9 Toda vez que o adulto balança G C9 Ele vem pra me dar a mão G C9 Há um passado no meu presente G C9 O sol bem quente lá no meu quintal G C9 Toda vez que a bruxa me assombra G C9 O menino me dá a mão C/E F E me fala de coisas bonitas D4/7 G Que eu acredito que não deixarão de existir C/E F Amizade, palavra, respeito, C D Caráter, bondade, alegria e amor C/E F Pois não posso, não devo,não quero viver D4/7 G Como toda essa gente insiste em viver C/E F E não posso aceitar sossegado C D Qualquer sacanagem ser coisa normal G C9 Bola de meia, bola de gude G C9 O solidário não é solidão G C9 Toda vez que a tristeza me alcança G C9 O menino me dá a mão

Compartilhe esta música: novo

QR Code
Copiar