A Hard Day's Night

Skank

Tom: C
 
            G    C    G 
It's been a hard day's night 
              F              G 
And I've been workin' like a dog 
             G    C    G 
It's been a hard day's night 
             F              G 
I should be sleepin' like a log 

            C  
But when I get home to you 
            D 
I find the things that you do 
             G   C  G 
You make me feel alright 

           G    C  G 
You know I work all day 
            F                 G 
To get your money to buy your things 
                          C        G 
And it's worth it just to hear you say 
             F               G 
You're gonna give me everything 

           C        
So why on earth should I moan? 
               D 
'Cause when I get you alone 
            G   C  G 
You know I feel okay 

           Bm 
When I'm home 
Em                      Bm 
Everything seems to be right 
          G 
When I'm home 
 Em                     C 
Feeling you holding me tight 
D 
Tight, yeah 

            G    C    G 
It's been a hard day's night 
              F              G 
And I've been workin' like a dog 
             G    C    G 
It's been a hard day's night 
             F              G 
I should be sleepin' like a log 

            C  
But when I get home to you 
            D 
I find the things that you do 
             G   C  G 
You make me feel alright 

Tab - Solo 

E|----------------------------------------------------| 
B|--------------------6-----6-----6-----6-------------| 
G|-------5---5/7--5h7---5h7---5h7---5h7---5p3---------| 
D|-5-5-8---8----------------------------------5p3-5---| 
A|----------------------------------------------------| 
E|----------------------------------------------------| 

E|----------------------------------------------------| 
B|--------------------6-----6-----6-----6-------------| 
G|-------5---5/7--5h7---5h7---5h7---5h7---5p3---------| 
D|-5-5-8---8----------------------------------5p3-5---| 
A|----------------------------------------------------| 
E|----------------------------------------------------|
C So why on earth should I moan? D 'Cause when I get you alone G C G You know I feel okay Bm When I'm home Em Bm Everything seems to be right G When I'm home Em C Feeling you holding me tight D Tight, yeah G C G It's been a hard day's night F G And I've been workin' like a dog G C G It's been a hard day's night F G I should be sleepin' like a log C But when I get home to you D I find the things that you do G C G You make me feel alright C G You know I feel alright C G G7(4) You know I feel alright

Compartilhe esta música: novo

QR Code
Copiar