Replay

Shinee

Tom: C
Intro: 
E|-----3-------------------3-------------------3-------------------3------3--| 
B|-----3----------3--------3----------3--------3----------3--------3------3--| 
G|-----0-------0-----------0-------0-----------0-------0-----------2------2--| 
D|---------------------------------------------------------------------------| 
A|--3-------3-----------2-------2--------------------------------------------| 
E|------------------------------------------3-------3-----------2-------2----| 


1º Verso / Refrão: 

E|-----3----3---3--------3-----3---3--------3----3---3--------3----3---3-----| 
B|-----3----3---3--------3-----3---3--------3----3---3--------3----3---3-----| 
G|-----0----0------------0-----0------------0----0------------2----2---------| 
D|---------------------------------------------------------------------------| 
A|--3-------3---------2--------2---------------------------------------------| 
E|---------------------------------------3-------3---------2-------2---------| 
Apartir do 1º refrao: (batida indico 6x6 ^^ pra qm tinha dificuldade que nem eu) Cadd9 Em7 Know you're my M.V.P., no one else has got what I need Gmaj7 D11 When it's just us two, I get shy but then you keep it so cool Cadd9 The way you're always watching out for me Em7 And although I wanna believe Gmaj7 D11 Tell me I'm not just imagining.. Cadd9 When you're not around Em7 I just feel a little down Gmaj7 D11 This is kinda silly right... it's not okay to me Cadd9 And I think I'm gonna hate it boy Em7 If you turn your back on me Gmaj7 D11 I don't wanna let this go ...but I'm wondering Cadd9 nunan neomu yeppeo Em7 I don't wanna hear it no more Cause I know it's gonna Gmaj7 D11 Replay Replay Replay Cadd9 Keep trying not to fake it Em7 How am I supposed to say it You're the song that I Gmaj7 D11 Replay Replay Replay

Compartilhe esta música: novo

QR Code
Copiar