Go Back

SE SO NEON

Tom: G
Intro F#7M  C  Fm7  Bb7  

Tab - Intro 

E|----------------------------------------------------| 
B|------------------14-13~----------------------------| 
G|-----------13-15--13-13~----------------------------| 
D|-----13-15-13-15------------------------------------| 
A|--15-13-15------------------------------------------| 
E|----------------------------------------------------|
   F#7M         C         Fm7      Bb7  
E|--9-----------8----------8--------6-------| 
B|--11----------8----------9--------6-------| 
G|--10----------9----------8--------7-------| 
D|--11----------10------------------6-------| 
A|--9---------------------------------------| 
E|------------------------------------------|
F#7M C Fm7 Eoneusae gildeuryeojin nae harue Bb7 F#7M Jeorishan du dari C Fm7 Barameul gareuneun nae deoreoun bal Bb7 F#7M Tturyeoshan dosiui bich Eº7 Fm7 Alsurok deo moreugessneun geon Ebm7 D7(5-) Db7M Naneun eodieseo wasseulkka C7 Fm7 Galsurok deo adeukhaejin geon Ebm7 Ab7 Ja doragal goseun eodi F#7M C If I go back where should I go back Fm7 Bb7 Go back go back F#7M C If I go back where should I go back Fm7 Go back go back Bb7 I don't know I don't know I can't go home F#7M C7 Fm9 Eoneusae biteureojin nae harue Bb13 F#7M Heurishaejin nae mom C7 Fm9 Haneure byeoreun da eodiro sumeo Bb13 Bb7 Tturyeoshan dosiui Solo Parte 1 de 3
E|--9--11/13--11~---------11--9~----------------------| 
B|-----------------13--9------------------------------| 
G|----------------------------------------------------| 
D|----------------------------------------------------| 
A|----------------------------------------------------| 
E|----------------------------------------------------|
Parte 2 de 3
E|-----9--13(b1/2)--13--11--13~--9--------------------| 
B|-11-------------------------------13~---------------| 
G|----------------------------------------------------| 
D|----------------------------------------------------| 
A|----------------------------------------------------| 
E|----------------------------------------------------|
Parte 3 de 3
E|--9--11/13--11~--------11/13--10--------------------| 
B|-----------------13--9------------11~---------------| 
G|----------------------------------------------------| 
D|----------------------------------------------------| 
A|----------------------------------------------------| 
E|----------------------------------------------------|
F#7M C If I go back where should I go back Fm7 Bb7 Go back go back F#7M C If I go back where should I go back Fm7 Bb7 Go back go back F#7M C If I go back where should I go back Fm7 Bb7 Go back go back F#7M C If I go back where should I go back Fm7 Go back go back Bb7 I don't know I don't know I can't go home ( F#7M C Fm7 Bb7 ) I don't know I don't know I can't go home ( F#7M C Fm7 Bb7 ) I don't know I don't know I can't go home

Compartilhe esta música: novo

QR Code
Copiar