Still Loving You ( acoustic )

Scorpions

Tom: Gm
Intro:  Gm/D Gm/F Gm/Eb Eb7+ D7 (2x)   

INTRO    
e|---6-------6-------6-----9-8-6-----6-----------5-------|    
B|-----8-------8-------8---------8-----8-----------7-----|    
G|-------7-------7-------7---------------7-----------5---|    
D|-0-------------------------------8-------8--7--------7-|    
A|---------8-------6---------------6----------5----------|    
E|-------------------------------------------------------|    

e|---6-------6-------6-----9-8-6-----6---------------8-|    
B|-----8-------8-------8---------8-----8--------7------|    
G|-------7-------7-------7---------------7--------5----|    
D|-0-------------------------------8-------8--7--------|    
A|---------8-------6---------------6----------5--------|    
E|-----------------------------------------------------|    
Verse 1: Gm Time, it needs time To win back your love again. A D I will be there, I will be there. Gm Love, only love Can bring back your love someday. A D I will be there, I will be there. Verse 2: Gm Fight, babe, I'll fight To win back your love again. A D I will be there, I will be there. Gm Love, only love Can break down the walls someday. A D I will be there, I will be there.
Gm Eb If we'd go again Bb F All the way from the start. Gm Eb I would try to change Bb F The things that killed our love. Gm Cm D Your pride has build a wall, so strong Gm That I can't get through. Eb Is there really no chance F To start once again? I'm loving you.

Compartilhe esta música: novo

QR Code
Copiar