In Thought Alone

Savage Messiah

Tom: C#
Tuning: C#, G#, C#, F#, A#, D#   


   Mid Paced Rock = 120bpm 


 Intro (clean): 

 |----------5---------------------3-| 
 |-------3---------------------3----| 
 |----3---------------------2-------| (let ring) 
 |-0--------------------------------| 
 |-----------------------3----------| 
 |----------------------------------| 




 Heavy Verse: 

 |----------------------------------|----------------------------------| 
 |----------------------------------|----------------------------------| 
 |----------------------------------|----------------------------------| 
 |---------3-3--2-------------------|---------3-3--2--------3------5-7-| 
 |-0-------1-1--1-----1-----1---1-3-|-0-------1-1--1-----/5---5-6------| 
 |-0--0-0---0-----0-0-1-0-0-1-0-1-3-|-0--0-0---0-----0-0---------------| 



 Chorus: 

 |-----------------------------------------------------------------------| 
 |-----------------------------------------------------------------------| 
 |-----------------------------------------------------------------------| 
 |-7-----2------8--------------------------------------------------------| 
 |-5-----1------5------5-----7-----8-----7----10-----10---8-------8---7--| 
 |----0------------0---5-----7--0--8--0--7----10--0--10---8---0---8---7--| 


 Post Chorus Bridge: 
                                1.              2. 
 |-----------------------------|---------------|----------------| 
 |-----------------------------|---------------|----------------| 
 |-----------------------------|---------------|----------------| 
 |-----------------------------|---------------|----------------| 
 |-----------------------------|--p---p---p----|--p---p---p--10-| 
 |-000-0-000-0-000----000-0-00-|-5-0-7-0-8-0-7-|-5-0-7-0-8-0-10-| 



 Harmony section 
   
  Guitar 1          1. 
 |-----------------|-----------h-p------|---------h--------| 
 |---10-8-11-10-8--|-10-8-6-8-6-8-6-5-6-|-10-8-6-6-8-6-5~~-| 
 |-7---------------|--------------------|------------------| 
 |---------------8-|--------------------|------------------| 
 |-----------------|--------------------|------------------| 
 |-----------------|--------------------|------------------| 
 |                 |                    |                  | 
 |Guitar 2         |                    |                  | 
 |-----------------|--------------------|------------------| 
 |---6--5-8--6-5---|-----------h-p------|---------h--------| 
 |-3---------------|-10-9-7-9-7-9-7-5-7-|-10-9-7-7-9-7-5~~-| 
 |---------------5-|--------------------|------------------| 
 |-----------------|--------------------|------------------| 
 |-----------------|--------------------|------------------| 
 |                 |                    |                  |  
 |Guitar 3         |                    |                  |  
 |---------------------------------------------------------| 
 |---------------------------------------------------------| 
 |------9---------------------9----------------------------| 
 |------7-10------------------7-10-------------------------| 
 |-0------8---8----------0------8---10------------8--------| 
 |-0-00-----0-8-8888888--0-00-----0-10-1010101010-8--------| 




 Bridge to the Solo: 

  Guitar 1 
 |----------------------------------------------------------------------------131517-| 
 |----------------------------------------------------------------131517131517-------| 
 |-/9-7-9-----10-9-10-----12-10-12--------------------121415121415-------------------| 
 |----------------------------------------121415121415-------------------------------| 
 |----------------------------------121315-------------------------------------------| 
 |-----------------------------------------------------------------------------------| 
 |                                                                                   | 
 |Guitar 2                                                                           | 
 |----------------------------------------------------------------------------101213-| 
 |---------------------------------------------------------------1012131012130-------| 
 |-/5-4-5-----7--5--7-----9--7--9---------------------91012-91012--------------------| 
 |----------------------------------------91012-91012--------------------------------| 
 |----------------------------------81012--------------------------------------------| 
 |-----------------------------------------------------------------------------------| 
 |                                                                                   | 
 |Guitar 3                                                                           | 
 |-----------------------------------------------------------------------------------| 
 |-----------------------------------------------------------------------------------| 
 |-----------------------------------------------------------------------------------| 
 |-----------------------------------------------------------------------------------| 
 |--2--------3----------5----------10///////////////////-----------------------------| 
 |--2--------3----------5----------10//////////////////------------------------------| 



  Solo Backing/outro riff: 

 |----------------------------------------------------------| 
 |----------------------------------------------------------| 
 |----------------------------------------------------------| 
 |----------------------------------------------------------| 
 |---------------------------3------------------------------| 
 |-0---5-3-5-----0-----5-3-5---0---5-3-5-----0-----5-3-5--3-| 
 |-0-0-------0-0-0-0-0---------0-0-------0-0-0-0-0-----5--3-| 

Compartilhe esta música: novo

QR Code
Copiar