Só Teu

Sara Cunha

Tom: Am
Intro: Am C F C C/B Am G D9/F# 

Am      C                 F                  C C/B 
Tu és a luz que brilha em meio a escuridão da noite 
Am     G          D9/F# 
Misericórdia ao amanhecer 
Am      C           F           C C/B 
Tu és a calmaria em meio a tempestade 
Am    G          D9/F# 
A alegria que inspira a viver 

Am F  C 
Je - sus 
Am F  C 
Je - sus 

Am      C                 F                  C C/B 
Tu és a luz que brilha em meio a escuridão da noite 
Am     G          D9/F# 
Misericórdia ao amanhecer 
Am      C           F           C C/B 
Tu és a calmaria em meio a tempestade 
Am    G          D9/F# 
A alegria que inspira a viver 

Am F  C 
Je - sus 
Am F  C 
Je - sus 

C            Am 
Eu dependo de Ti 
             C 
Eu preciso de Ti 
              Am 
Tu és tudo pra mim 
        C 
Tudo em mim 
            Am 
O meu mundo entreguei 
            D9/F#      C 
Para sempre serei... só teu 

base do dolo: Am C F C C/B Am G D9/F# 2x 

Solo: 

E|-------------------------------------------------------------------------------| 
B|-------------------------------------------------------------------------------| 
G|--9h10p9--7---------------------5--7p5/7--5------------------------5-5h7-7/8---| 
D|-----------10--7/10----5h7--------------------7---------5-5h7-7/9--------------| 
A|-------------------------------------------------------------------------------| 
E|-------------------------------------------------------------------------------| 

E|-----------------------------------------------------| 
B|-----------------------------------------------------| 
G|--9h10p9----7-5-5h7p5--------------------------------| 
D|-----------------------7-----------------------------| 
A|-----------------------------------------------------| 
E|-----------------------------------------------------| 
Final: Am C F Am G D9/F# C

Compartilhe esta música: novo

QR Code
Copiar