Muitos choram

Rosa de Saron

Tom: Am
(intro) Am  F  Am  F  Am  F 

Am 
O vento bate na janela, eu busco asas pra voar 
F                    Em 
Pra bem mais perto de você 
F                    G 
    Bem mais perto de você 

Am                                        C 
Estamos livres, mas sozinhos, abandonados 
F                             G 
    Por quem tinha que nos entender 
F                             G 
    Por quem tinha que nos defender 


C         G         Dm 
    Hoje muitos choram 
         F              C 
Mas não desistem de viver 
      G          Dm       F 
Hoje muitos choram sorrindo 
C         G        Dm 
Hoje muitos choram 
          F             C 
Mas não desistem de viver 
        G      Dm       F 
Hoje muitos choram sorrindo 

( Am  F  Am  F  Am  F ) 

Am 
    A vida passa como um rio, e não é mais tudo tão lindo 
F                      Em           F 
    Nos resta apenas confiar em Deus 
                       G 
Nos resta apenas confiar 
Am                                                     C 
    São só palavras e promessas dissimuladas, sem noção 
F                                G 
    Que muitas vidas correm em suas mãos 
F                                G 
    Que muitas vidas correm em suas mãos 

C      G       Dm 
Hoje muitos choram 
       F                  C 
Mas não desistem de viver 
       G      Dm        F 
Hoje muitos choram sorrindo 
C      G        Dm 
Hoje muitos choram 
          F             C 
Mas não desistem de viver 
       G       Dm        F 
Hoje muitos choram sorrindo 

(solo) ( Dm  F  C  G ) (3x) Dm  F  Am  G 

(solo) 
E |----------------10----8-7------------------8------------------------ 
B |--5h6p5--5h6~/8-----------8-5-------3h5-6----6--8-----8-6--5h6p5---- 
G |-------7-----------------------4-5----------------7--------------7-- 
D |-------------------------------------------------------------------- 
A |-------------------------------------------------------------------- 
E |-------------------------------------------------------------------- 

E |----------------------------8/10-10-10-8-8p7-------12--10-8-10-12-10-8---- 
B |--------------5---5-6-8-6-8-------------------8-8----------------------10- 
G |-5-4-5--4-5-7---7--------------------------------------------------------- 
D |-------------------------------------------------------------------------- 
A |-------------------------------------------------------------------------- 
E |-------------------------------------------------------------------------- 

E |----13--12--10--8--8-8/10------ 
B |--10--10--10-----10--------12-- 
G |------------------------------- 
D |------------------------------- 
A |------------------------------- 
E |-------------------------------
C G Dm Hoje muitos choram F C Mas não desistem de viver G Dm F Am F Hoje muitos choram C G Am F Choram sorrindo C G Am F Choram sorrindo C G Am F Choram sorrindo C G/B Dm Choram sorrindo ( Am G F Em Dm C G/B Am G )

Compartilhe esta música: novo

QR Code
Copiar