O coveiro

Rogério Skylab

Tom: F
Intro: F, C, Dm, A/C#, Bb, C, F, C (2x) 
(fazendo todos os acordes dedilhando) 

F       C         Dm 
 O coveiro que trabalha 
   A/C#           Bb 
Na minha cidade natal, 
   C              F     C 
Um dia vai me enterrar. 
F       C         Dm 
 Assim como já enterrou 
   A/C#           Bb 
Minha mãe, meu pai, meu avô, 
   C              F     A/C# 
Nenhuma falta me faz. 


A#/D    C/E              F 
Ooo coveiro, por favor, A/C# Bb Diz como se faz C F A/C# Uma cova ideal. A#/D C/E F Que eu também quero enterrar A/C# Bb O que ficou para traz C F C E depois dizer “nunca mais”.
F C Dm O coveiro que trabalha A/C# Bb Na minha cidade natal, C F C Um dia vai me enterrar. F C Dm Assim como já enterrou A/C# Bb Minha mãe, meu pai, meu avô, C F A/C# Nenhuma falta me faz. A#/D C/E F
Ooo coveiro, por favor, A/C# Bb Diz como se faz C F A/C# Uma cova ideal. A#/D C/E F Que eu também quero enterrar A/C# Bb O que ficou para traz C F C E depois dizer “nunca mais”.
 e -8-----8----8---8-------------------------8-- 
      B ----11---11---11----------------------------- 
      G ------------------------12p10--12/14--10----- 
      D --------------------------------------------- 
      A --------------------------------------------- 
      E --------------------------------------------- 
 e -8-----8----8---8---------------------------- 
      B ----11---11---11----------------------------- 
      G ------------------------12p10--12/14--10----- 
      D --------------------------------------------- 
      A --------------------------------------------- 
      E --------------------------------------------- 
A#/D C/E F
Ooo coveiro, por favor, A/C# Bb Diz como se faz C F A/C# Uma cova ideal. A#/D C/E F Que eu também quero enterrar A/C# Bb O que ficou para traz C F C E depois dizer “nunca mais”.
 e -8-----8----8---8-------------------------8-- 
      B ----11---11---11----------------------------- 
      G ------------------------12p10--12/14--10----- 
      D --------------------------------------------- 
      A --------------------------------------------- 
      E --------------------------------------------- 
 e -8-----8----8---8---------------------------- 
      B ----11---11---11----------------------------- 
      G ------------------------12p10--12/14--10----- 
      D --------------------------------------------- 
      A --------------------------------------------- 
      E --------------------------------------------- 
F C Dm O coveiro que trabalha A/C# Bb Na minha cidade natal, C F C Um dia vai me enterrar. F C Dm Assim como já enterrou A/C# Bb Minha mãe, meu pai, meu avô, C F A/C# Nenhuma falta me faz. A#/D C/E F
Ooo coveiro, por favor, A/C# Bb Diz como se faz C F A/C# Uma cova ideal. A#/D C/E F Que eu também quero enterrar A/C# Bb O que ficou para traz C F C E depois dizer “nunca mais”.
 e -8-----8----8---8-------------------------8-- 
      B ----11---11---11----------------------------- 
      G ------------------------12p10--12/14--10----- 
      D --------------------------------------------- 
      A --------------------------------------------- 
      E --------------------------------------------- 


      e -8-----8----8---8---------------------------- 
      B ----11---11---11----------------------------- 
      G ------------------------12p10--12/14--10----- 
      D --------------------------------------------- 
      A --------------------------------------------- 
      E --------------------------------------------- 
dessa vez repete mais uma vez toda a tab e daew FIM ;) Essa é uma musica de um grande cara para mim... eu fiz ela com todo o orgulho e trabalho =D espero q não esteja errada!

Compartilhe esta música: novo

QR Code
Copiar