Oh La La

Rod Stewart

Tom: D
Capotraste na 1ª casa
Tabbed by: Alex Fisher 
Email: none 

Tuning: Standard    

Intro and Outro: 
    D            Em7     G 
e|-------------------------------| 
B|-------------------------------| 
G|--2----------------------------| 
D|----5-4-2-0h2-4-5-4-2----------| 
A|----------------------5-0h2-5--| 
E|-------------------------------| 

Melody: 
    D           Em7    G 
e|----------------------------------| 
B|----------------------------------| 
G|--2-2-2-4-2---------0-0-0---------| 
D|------------4-0-2-2-------4-2-0---| 
A|----------------------------------| 
E|----------------------------------| 

Chord version of melody:  
    D                   Em7   G 
e|--2-2-2-2-2-2-2-------0-0---3-3-3-3---------| 
B|--3-3-3-3-3-3-3-------3-3---3-3-3-3---------| 
G|--2-2-2-2-2-2-2-------0-0---0-0-0-0---------| 
D|--0-0-0-0-0-0-0--4-0--2-2---0-0-0-0--4-2-0--| 
A|----------------------2-2---2-2-2-2---------| 
E|----------------------------3-3-3-3---------|
1st Verse: D Em7 Poor old granddad, I laughed at all his words, D Em7 I thought he was a bitter man, he spoke of women's ways, D Em7 They'll trap you, and they'll use you, and before you even know, D Em7 For love is blind and your far to kind, don't ever let it show. Chorus: D Em7 G I wish that I knew what I know now, when I was younger, D Em7 G I wish that I knew what I know now, when I was stronger. Melody:
    D           Em7    G 
e|----------------------------------| 
B|----------------------------------| 
G|--2-2-2-4-2---------0-0-0---------| x2 
D|------------4-0-2-2-------4-2-0---| 
A|----------------------------------| 
E|----------------------------------|
2nd Verse: D Em7 The Can Can's such a pretty show, they'll steal your heart away, D Em7 But backstage's back on earth again, the dressing rooms are great, D Em7 They'll come on strong and it ain't to long, before they make you feel a man, D Em7 But love is blind and you soon will find, your just a boy again. Chorus: D Em7 G I wish that I knew what I know now, when I was younger, D Em7 G I wish that I knew what I know now, when I was stronger. Melody:
    D           Em7    G 
e|----------------------------------| 
B|----------------------------------| 
G|--2-2-2-4-2---------0-0-0---------| x2 
D|------------4-0-2-2-------4-2-0---| 
A|----------------------------------| 
E|----------------------------------|
3rd Verse: D Em7 When you want her lips, you get her cheek, makes you wonder where you are, D Em7 If you want some more, and she's fast asleep, leaves you twinklin' with the stars, D Em7 Poor young grandson, there's nothing I can say, D Em7 You'll have to learn just like me, and that's the hardest way. Chorus: D Em7 G I wish that I knew what I know now, when I was younger, D Em7 G I wish that I knew what I know now, when I was stronger. Melody:
   D           Em7    G 
e|----------------------------------| 
B|----------------------------------| 
G|--2-2-2-4-2---------0-0-0---------| x2 
D|------------4-0-2-2-------4-2-0---| 
A|----------------------------------| 
E|----------------------------------| 

 D              Em7 
Oh la la, oh la la ya ya ya,  
 D              Em7 
Oh la la, oh la la ya ya ya. 

Melody: 

  D           Em7    G 
e|----------------------------------| 
B|----------------------------------| 
G|--2-2-2-4-2---------0-0-0---------| x4 
D|------------4-0-2-2-------4-2-0---| 
A|----------------------------------| 
E|----------------------------------| 

Outro: (slowly fade out) 

 D            Em7     G 
e|-------------------------------| 
B|-------------------------------| 
G|--2----------------------------| 
D|----5-4-2-0h2-4-5-4-2----------| 
A|----------------------5-0h2-5--| 
E|-------------------------------|

Compartilhe esta música: novo

QR Code
Copiar