Id Rather Go Blind

Rod Stewart

Tom: G
From: DON CZARSKI  
To: * ; *  
* ; * ; *  
Date: Sunday, August 01, 1999 1:38 PM 

ALBUM: STORYTELLER 
TAB BY: DON CZARSKI 
E-MAIL: * 

                        I'D RATHER GO BLIND 

INTRO:                                   G     Am  G 

E --13-/11-11---11-/9-9---9-/7-7---5--3--3--| 
B --13-/11-11---11-/9-9---9-/7-7---5--3--3--| 
G ---------------------------------------0--| 
D ---------------------------------------0--| 
A ---------------------------------------2--| 
E ---------------------------------------3--| 

RIFF 1: (IT'S IN THE INTRO AND PLAYED DURING THE SONG) 

E ------------------------------------------| 
B ------------------------------------------| 
G ------------------------------------------| 
D ------------------------------------------| 
A --------5--7------------------------------| 
E ----/7---------5--------------------------|
NOTE: WHEN PLAYING THE Am I LIKE TO LIFT UP AND MOVE MY FINGERS OFF THE FRET BOARD FOR A BETTER SOUND. THIS CREATES THE CHORDS AT TIMES: A5 Am7 Asus4 G Am Something told me it was over G When I saw you and him talking Am Something deep down in my soul said cry boy G When I saw you and him out walking Am I would rather, I would rather go blind girl G Then to see you walk away from me child So you see I love you so much Am I don't want to see you leave me baby G Most of all I just don't, I just don't want to be free Am I was just, I was just sitting here thinking G Of your kiss and your warm embrace child Am When the reflection in the glass that adhered to my lips now baby G Revealed the tears I had on my face Am I would rather, I would rather go blind child G Then to see you walk away from me Am Baby, baby, baby I would rather go blind G Then to see you walk away from me Am G Am Baby, baby baby I would rather go blind.........FADE OUT ANY QUESTIONS, COMMENTS OR CORRECTIONS E-MAIL ME AT: * P E A C C C E E E D O N _______________________________________________________________ Get Free Email and Do More On The Web. Visit http://*

Compartilhe esta música: novo

QR Code
Copiar