Every Rock N Roll Song To Me

Rod Stewart

Tom: A
Tabbed by: Mz5775 

Great classic hits involved 
ROCK ON Y’ALL !!! ;) 
-Mz5775 

Tuning: Standard 
Capo:   1st Fret 
*********************************** 
INTRO 
                                A        F#m   E    D        E  
e|-------------------------------------------------------------------------| 
B|--5/666--5/666--6/8-6----------------------------------------------------| 
G|--6/777--6/777--------7-5-3---3-----------------3-------3--5b7r5-5b7r5---| 
D|--7/888--7/888--------------5---------------3/5---0--3/5-----------------| 
A|--7/888--7/888-----------------------------------------------------------| 
E|-------------------------------------------------------------------------| 
A F#m E D E
e|-----------------------------------------------------------------| 
B|--5/666--5/666--5/666--8-6---------------------------------------| 
G|--6/777--6/777--6/777--------7\5-3-----------3--5b7r5-5b7r5--3---| 
D|--7/888--7/888--7/888--------------------3/5---------------------| 
A|--7/888--7/888--7/888--------------------------------------------| 
E|-----------------------------------------------------------------| 
verse 1 A F#m Hey you’re my ’Strawberry Fields' D E I know that’s strange but it’s how I feel A F#m E And hey be my ’Heart of Glass' D E And I will always make you laugh Chorus
D E You’re my ’Bridge Over Troubled Water' D E And there ain’t a thing about you I would alter D E A F#m E D E You’re every rock n’ roll song to me
verse 2 A F#m Hey ’Bette Davis Eyes' D E Now roll me like a ’Tumbling dice' A F#m E And hey you’re my ’Billie Jeanâ?ť, D E My ’Peggy Sueâ?ť and ’Laylaâ?ť too Chorus
D E You’re my ’Bohemian Rhapsody' D E I’m crazy bout ya, can’t you see? D E A F#m E D E You’re every rock n’ roll song to me.....Ah yeah!
verse 3 A F#m And hey be my ’Blonde on Blonde' D E And ’Bring It On Homeâ?ť where you belong A F#m E And hey you’re my ’Rock of Agesâ?ť, D E ’You Sexy Thingâ?ť, you’re so outrageous Chorus
D E You’re my unscratched ’Tubular Bellsâ?ť, D E My very own ’Bat Out of Hell' D E A F#m E You’re every rock n’ roll song to me D E A You’re every rock n’ roll song to me
BRIDGE Bm F#m Now what I’m saying to you may seem quite absurd D E But it’s from the heart baby, so please, please don’t analyse the words.....Ahh yeah!! SOLO (HARMONICA) A F#m E D E (2x) Chorus
D E You’re my vinyl ’Yellow Brick Road' D E And on you baby I am sold! D E A F#m E D E You’re every rock n’ roll song to me...........One more time!
VERSE 5 A F#m And hey be my ’Uptown Girl', D E I just wanna share your world A F#m E And hey ’In the Midnight Hour' D E I will always 'Bring You Flowers' FINAL CHORUS
D E You’re my ’Dark Side of the Moon' D E You’re pretty face lights up every room D E A F#m E You’re every rock n’ roll song to me D E A F#m E D E A F#m E You’re every rock n’ roll song to me........Ohhhh yeah! D E A You’re every rock n’ roll song to me (end)

Compartilhe esta música: novo

QR Code
Copiar