Tudo Por Amor (Can´t Buy Me Love)

Rita Lee

Tom: Bm
 
 Versão Rita Lee 
 
 
solo: 
E|--------------------------6----------6-6-6/5-6-6-6-6-6-6------------------------------ 
B|-----3-3-3--3-----------3---------------------------------3-3-3-3-3------------------- 
G|---3----------5-3---3-5-----3---------------------------------------3----------------- 
D|-5----------------5-----------5-3-5-----------------------------------5-3-5----3-5---- 
A|-----------------------------------------------------------------------------5-----5-- 
E|-------------------------------------------------------------------------------------- 
 
E|------------------------------------ 
B|-3-3-3-3-3-3-----------3-3-3-------- 
G|-------------5-5-3-5-3-------5-3---- 
D|---------------------------------5-- 
A|------------------------------------ 
E|------------------------------------ 
Bm Em Bm Em Tudo por amor, Am D Tudo por amor, G Compre o mundo inteiro meu bem Se isso lhe deixa feliz C Vá morar no estrangeiro meu bem G D# Torrar os dólares do seu país D C Você faz tudo por dinheiro D C G Eu faço tudo por amor Que grana é bom eu sei que é Ninguém disse que não Mas viver só pra isso não dá pé Até faz mal pro coração Você só pensa em dinheiro Eu só penso em amor Bm Em G Tudo por amor, eu faço tudo por amor Bm Em Am D Tudo por amor, por amor, oh! Vender a alma por dindim Pra comprar uma Ferrari Sonho de consumo é tão chinfrim Um belo dia você vai se ferrar e Não me venha com seu money Que se dane eu quero amor Me cansa a beleza, meu bem Sua griffe de milionário Abra logo uma igreja, meu bem Um banco, um bordel, um ranário Você faz tudo por dinheiro Eu faço tudo por amor _______________________________________________________ Contribuição: Sidney Ferreira([email protected])

Compartilhe esta música: novo

QR Code
Copiar