Dançar Para não Dançar

Rita Lee

Tom: A
 
A 
Dance, dance, dance 
E7 
Gaste um tempo comigo 
Não, não tenha juízo  
A                    D        F      G 
Dê-se ao luxo de estar sendo fútil agora 
 
A 
Dance, dance, dance 
E7 
Faça como Isadora 
Que ficou na história 
A           D     F         E7 
Por dançar como bem quisesse 
 
D                 E7 
 Um movimento qualquer 
D                 E7 
 Sobe à cabeça e os pés 
D 
Sinta o corpo 
Você está solto 
E pronto pra vir... 
 
Dance, dance, dance 
Passe as horas comigo 
Nesse duplo sentido 
E no barato de ser um ser vivo, ainda 
 
Dance, dance, dance 
Num programa de índio 
Vai rodar um cachimbo 
Que é pra paz não dançar na tribo 
 
Um movimento qualquer 
Sobe à cabeça e os pés 
Sinta o corpo 
Você está solto 
E pronto pra vir... 
    A6  F     A F G G# A 
Me amar, me amar 
 
solo: 
E---------------------------------------------------------------------12-10--------------------- 
B----------------------------------------------------------------10---------13-12-10---13-12-10- 
G-------------4-------------------9-7----------9-7------9-7----9-------------------------------- 
D-----------4---7---10-9-7-10-9-7-----10-9-7-------10-9-----10---------------------------------- 
A-----4-5-7------------------------------------------------------------------------------------- 
E-5-7------------------------------------------------------------------------------------------- 
 
E--------------10-12---12-10-------------------------------------------------------------------- 
B-10--13-12-10----------------13-12-13-12-10---------------------------------------------------- 
G----------------------------------------------7-9-7-------------------------------9-7---------- 
D----------------------------------------------------10-9-10-9-7---7-10-9-7-10-9-7-----10-9-7--- 
A----------------------------------------------------------------------------------------------- 
E----------------------------------------------------------------------------------------------- 
_______________________________________________________ Contribuição: Sidney Ferreira([email protected])

Compartilhe esta música: novo

QR Code
Copiar