The one I Love

REM

Tom: Em
Intro riff: 
E|----------------------0--0--0--0--0---------------------0--0--0--0--0--0-- 
B|---------------3--s---5--3--5--5--3------------------3--s--5--3--5--5--3-- 
G|---------------2-------------------------------------2-------------------- 
D|---------------0-------------------------------------0-------------------- 
A|------------0-------------------------------------0----------------------- 
E|-0--0--2s3-----------------------------0--0--2s3-------------------------- 
Em Dsus2 Em Em7 This one goes out to the one I love Em Dsus2 Em Em7 This one goes out to the one I've left behind Gsus4 D Am7 C A simple prop to occupy my time Em Dsus2 Em Em7 This one goes out to the one I love {riff} Fire Fire Em Dsus2 Em Em7 This one goes out to the one I love Em Dsus2 Em Em7 This one goes out to the one I've left behind Gsus4 D Am7 C A simple prop to occupy my time Em Dsus2 Em Em7 This one goes out to the one I love {riff} Fire (she's comin' down on her own, now) Fire (she's comin' down on her own, now)
Guitar solo: 
E|-------------------------------------------------------------------------- 
B|------3-----5--3--------3-----5--3--------3-----5--3--3h5--3--0----------- 
G|-2s4-----4---------2s4-----4---------2s4-----4-------------------2--0----- 
D|-------------------------------------------------------------------------- 
A|-------------------------------------------------------------------------- 
E|-------------------------------------------------------------------------- 
 
E|-------------------------------------------------------------------------- 
B|-----------------------3-------------------------------------------------- 
G|---------0--0--2--2s4-----4--2--0----------------------------------------- 
D|-0--0h2----------------------------0--0h2--4--2-------2------------------- 
A|-------------------------------------------------------------------------- 
E|-------------------------------------------------3~~-----------0----------
Em Dsus2 Em Em7 This one goes out to the one I love Em Dsus2 Em Em7 This one goes out to the one I've left behind Gsus4 D Am7 C Another prop has occupied my time Em Dsus2 Em Em7 This one goes out to the one I love {riff} Fire (she's comin' down on her own, now) Fire (she's comin' down on her own, now) Fire (she's comin' down on her own, now) Fire (she's comin' down on her own, now)
End: 
E|------------------------0-- 
B|------------3-----0-----0-- 
G|------------2-----0-----0-- 
D|------------0-----1-----2-- 
A|---------0--------------2-- 
E|-0--2s3-----------------0-- 

Compartilhe esta música: novo

QR Code
Copiar