Tom: F#m
 
Versão 1 
-======- 
 
Intro: (F#m  A  E5) 
 
(F#m  A  E) 
O QUE VENHO LHE CLAMAR 
É SOMENTE UM TEMPO A MAIS 
PRA QUE EU 
POSSA LHE EXPLICAR 
O QUE PRA VOCÊ TANTO FAZ  
OLHE PRAS CRIANÇAS NO PARQUE 
ELAS ESTÃO FELIZES 
AGORA ESTÃO BRINCANDO 
MAS LOGO IRÃO CRESCER 
            F#m   A        E   
E TERÃO QUE APRENDER A SOFRER 
        F#m   A       E  
OU SEJA APRENDER A VIVER 
  F#m   A        E 
E APRENDER A SOFRER 
        F#m   A       E 
OU SEJA APRENDER A VIVER 
 
(F#m  A  E) 
ONTEM AMEI TUA 
PRESENÇA AQUI 
EU APRENDI A VIVER 
HOJE ODEIO  
A TUA AUSÊNCIA AQUI 
 
(F#m  A  E) 
EU TIVE QUE APRENDER A SOFRER 
EU TIVE QUE APRENDER A SOFRER 
OU SEJA APRENDER A VIVER 
E APRENDER A SOFRER 
OU SEJA APRENDER A VIVER...  
VIVENDO APRENDO A AMAR 
AMANDO A SOFRER 
SOFRENDO APRENDO A VIVER 
SOFRENDO APRENDO A AMAR  
VIVENDO A SOFRER 
AMANDO APRENDO A VIVER 
 
_______________________________________________________ 
Contribuição: Eduardo Cansian([email protected]) 
 
Versão 2 
-======- 
 
 
Intro: 
e|--------------------------------------------| 
B|--------------------------------------------| 
G|--------------------------------------------| 
D|----7h8p7-7-10-8-7p8-----7-7h8p7-7-10-8-7h8-| 
A|-0--------------------0---------------------| 
E|--------------------------------------------| 
PM|-|                  |-| 
 
Riff A: 
e|-------------------| 
B|-------------------| 
G|-------------------| 
D|-------------------| 
A|-2---2-3-2---2-2-5-| 
E|-0---0-1-0---0-0-3-| 
 
Add A: 
e|-------------------------------------------------------------------------|  
B|-------------------------------------------------------------------------|  
G|-------------------------------------------------------------------------|  
D|-------------------------------------------------------------------------|  
A|-------------------------------------------------------------------------|  
E|-0--0--0--0-0--0--0-0-1--1--1-1--1-1--1--1-1-0--0--0--0-0?-0---0-0---1-1-|  
PM|-----------------------------------------------------------------------| 
 
Add B: 
e|-----| 
B|-----| 
G|-----| 
D|-----| 
A|-5-3-| 
E|-3-1-| 
 
Riff B: 
e|------------------------------------------| 
B|------------------------------------------| 
G|------------------------------------------| 
D|-5h7-5h7-5h7-5h7-5-7?-5h7-5h7-5h7-5h7-5-2-| 
A|-5h7-5h7-5h7-5h7-3-5--5h7-5h7-5h7-5h7-3-0-| 
E|------------------------------------------| 
 
Add C: 
e|---------------------------------------------| 
B|---------------------------------------------| 
G|---------------------------------------------| 
D|---------------------------------------------| 
A|---------------------------------------------| 
E|-0--0--0--0-0--0--0-0-1--1--1-1--1-1--1--1-1-| 
PM|-------------------------------------------| 
 
Add D: 
e|----------------| 
B|----------------| 
G|----------------|(escute a música e veja  
D|----------------| o ritmo dessa parte) 
A|-2--etc--3--etc-|  
E|-0-------1------| 
PM|--------------| 
 
 
 
 
 
Solo: 
e|-----------------------| 
B|-----------------10vvv-| 
G|-7-7---x-7-7---7-9vvvv-| 
D|-7---x---7---7---------| 
A|-----------------------| 
E|-----------------------| 
 
                   HA 
e|-----------------------| 
B|-----------------10vvv-| 
G|-7-7---x-7-7---7-9vvvv-| 
D|-7---x---7---7---------| 
A|-----------------------| 
E|-----------------------| 3x 
 
e|------------------------| 
B|-----------------10-----| 
G|-7-9-7-9-7-9-7-9----7-9-| 
D|-7-------7--------------| 
A|------------------------| 
E|------------------------| 4x 
 
Riff C: 
e|--------------------------------| 
B|--------------------10-10-10-10-| 
G|-7--9-7?-9-7--9-7-7-------------| 
D|--------------------------------| 
A|--------------------------------| 
E|--------------------------------|
Ordem: Intro: 2x Riff A: 4x Add A: 1x Add B: 1x Riff B: 2x Riff A: 4x Pausa Add B: 1x Riff B: 3x e ½ Riff A: 4x Add C: 1x Add D: 1x Solo + Add D: 4x Pausa Add B: 1x Riff B: 3x e ½ Riff A: 4x Riff C: 4x _______________________________________________________ Contribuição: Igor Janiel Souza Brito([email protected])

Compartilhe esta música: novo

QR Code
Copiar