Un Recuerdo De Vos Y De Mí

Rayos Laser

Tom: E

Intro: Rasgueo en E 


(E)                     G#m  E 
El mundo nunca estuvo mejor 

(E)                     G#m  F#m 
El viento no dejó de soplar 

(F#m)                    B - E - A 
Cantamos en la noche que nunca fue 

F#m             B      E 
Viajamos en el tiempo 



(E)                     G#m  E 
La música nos hace bailar 

(E)                          G#m  F#m 
Hoy cuesta pero puedo intentarlo 

(F#m)                     B - E - A 
Las luces de la calle me pegan mal 

F#m             B 
Llegamos a tu casa 



A          E 
Pero no estás 

B          F#m7 
No te encontré 

A          E        C#m7 - B 
Como un reflejo te imaginé 



A          E 
Para entender 

B       F#m7 
Debo seguir 

A          E        C#m7 
Con el recuerdo que tengo 

    B7      A 
De vos y de mí 


(Punteo en escala de C#) 



A          E 
Pero no estás 

B          F#m7 
No te encontré 

A          E        C#m7 - B 
Como un reflejo te imaginé 



A          E 
Para entender 

B       F#m7 
Debo seguir 

A          E        C#m7 
Con el recuerdo que tengo 

    B7      C#m 
De vos y de mí 


(FINAL) 



C#m    G#m   Am7 - Bm - C - D  C#m (bis)x3 
Aaah aaaahhh ahhh aaahhhh aahhh 



E                     Esus4* 
El mundo nunca estuvo mejor... 


(Punteo) 

           E        G#m             E        G#m 
 1|-----------------------|---------------------------| 
 2|-----------------------|---------------------------| 
 3|--0^1-1-1-1-1-1-1------|--1-1-1-1-1-1-1------------| 
 4|-----------------4-2-1-|----------------4-2-1------| 
 5|-----------------------|----------------------4^2--| 
 6|-----------------------|---------------------------| 



           F#m        B   E   A       F#m        B 
 1|-----------------------------|---------------------| 
 2|-----------------------------|---------------------| 
 3|--1^2-2-2-2-2-2-1------------|--1^2-2-2-2-2-2-1----| 
 4|-----------------4-1--2------|---------------------| 
 5|-----------------------4--2^0|---------------------| 
 6|-----------------------------|---------------------|

Compartilhe esta música: novo

QR Code
Copiar