Tente outra vezCifra Verificada

Raul Seixas

Tom: A
 
Intro: A C G C/G D A C G Bm7 E7 

e|-0-0-0-0-0-0--------0-0-0-0-0-------3-3---3---3-3-3-----| 
B|-2-2-2-2-2-2--------1-1-1-1-1-------0-0---0---1-1-1---0-| 
G|-2-2-2-2-2-2--------0-0-0-0-0-------0-0---0---0-0-0---0-| 
D|-2-2-2-2-2-2--------2-2-2-2-2-------0-0---0---2-2-2---0-| 
A|-0-0-0-0-0-0--0-2-3-3-3-3-3-3-3-2-0-2-2-----------------| 
E|------------------------------------3-3-----------------| 

e|-2-2--4-4-4---------------------------------------3-3-3-3-3-3-| 
B|-3-3--3-3-3---------------------------------------3-3-3-3-3-3-| 
G|-2-2--2-2-2--------2-2-2-2-2-2-----------0---0----0-0-0-0-0-0-| 
D|-0-0--------0h2----2-2-2-2-2-2--------2-----------0-0-0-0-0-0-| 
A|-------------------0-0-0-0-0-0-0-2-3-------2---0--2-2-2-2-2-2-| 
E|---------------3b4--------------------------------3-3-3-3-3-3-| 

e|--2-2--0---------------0-0-0-0--0-| 
B|--3-3--0---------------3-3-3-3--2-| 
G|--4-4--1------0---2/4--4-4-4-4--2-| 
D|--4-4--2--0h2---0---------------2-| 
A|--2-2--2------------------------0-| 
E|-------0--------------------------| 

A C G C/G Veja, não diga que a canção está perdida. D A Tenha fé em Deus, tenha fé na vida. C G Bm E7 Tente outra vez. A C G C/G Beba (beba), pois a água viva ainda tá na fonte D A Você tem dois pés para cruzar a ponte. C G G7 Nada acabou, C Bm Tente, levante sua mão sedenta e recomece a andar. C G Não pense que a cabeça aguenta se você parar. Não, não, não, não, não, não D C D Há uma voz que canta, há uma voz que dança, F G Bm7 E7 uma voz que gira (gira) bailando no ar. A C G C/G Queira, basta ser sincero e desejar profundo. D A Você será capaz de sacudir o mundo. C G Bm E7 Vai, tente outra vez. A C G C/G Tente, e não diga que a vitória está perdida D A C G/B Am G Se é de batalhas que se vive a vida, tente outra vez.

Compartilhe esta música: novo

QR Code
Copiar