Medo da ChuvaCifra Verificada

Raul Seixas

Tom: D
		  

Intro: A7  D  G  G5/F#  

E|-----------------------------------------------------  
B|-9-10-10-10-5-5-5-5-7--7/8-8-8-8-7-5-3---------------  
G|-----------------------------------------------------  
D|-6/7--7--7--2-2-2-2-4--4/5-5-5-5-4-2-0---------------  
A|-----------------------------------------------------  
E|-----------------------------------------------------  

E|-2-----2-----3p2-------------------------------------  
B|-----3-----3-----3-----------------------------------  
G|---2-----2---------2---------------------------------  
D|-----------------------------------------------------  
A|-----------------------------------------------------  
E|-----------------------------------------------------  

E|-9/10-10-9-9-7-5------5------------------------------  
B|------------------5/7---5----------------------------  
G|-9/11-11-9-9-7-6-------------------------------------  
D|-----------------------------------------------------  
A|-----------------------------------------------------  
E|-----------------------------------------------------  

E|-7/9-7-5------2---3p2-----2-----2---3p2-----2--------  
B|------------3---------3-------3---------3------------  
G|-7/9-7-6--2-----2-------2---2-----2-------2----------  
D|-----------------------------------------------------  
A|-----------------------------------------------------  
E|-----------------------------------------------------  

E|-3---------------------------------------------------  
B|-3---------3-----------------------------------------  
G|-0--0-2/4----4\2-0-2-0-2-2--2-4~---------------------  
D|-0---------------------------------------------------  
A|-2---------------------------------------------------  
E|-3---------------------------------------------------  

E|-------10-------14-------10------8-----7-----5-----3-  
B|-----------------------------------------------------  
G|-10/11----11/14----14\11----11\9---9\7---7\5---5\4---  
D|-----------------------------------------------------  
A|-----------------------------------------------------  
E|-----------------------------------------------------  
D A7 É pena Que você pense que eu sou seu escravo D Dizendo que eu sou seu marido e não posso partir G F#m Como as pedras imóveis na praia eu fico ao teu lado Bm sem saber A7 D D7 Dos amores que a vida me trouxe eu não pude viver Refrão: G D Eu perdi o meu medo, meu medo, meu medo da chuva G D Pois a chuva voltando pra terra Traz coisas do ar G D Aprendi o segredo, o segredo, o segredo da vida A7 D Vendo as pedras que choram sozinhas no mesmo lugar A7 E não posso entender tanta gente aceitando a mentira D De que os sonhos desfazem aquilo que o padre falou G F#m Porque quando eu jurei meu amor eu traí a mim mesmo Bm A7 Hoje eu sei que ninguém nesse mundo D D7 É feliz tendo amado uma vez, uma vez. Refrão: G D Eu perdi o meu medo, meu medo, meu medo da chuva G D Pois a chuva voltando pra terra Traz coisas do ar G D Aprendi o segredo, o segredo, o segredo da vida A7 D Vendo as pedras que choram sozinhas no mesmo lugar A7 D Vendo as pedras que choram sozinhas no mesmo lugar A7 G D Vendo as pedras que sonham sozinhas no mesmo lugar
E|----------------------------------------2------------  
B|----------------------------------------3------------  
G|------------7-7---7h9-7-------------7---2------------  
D|------5-7/9-----9-------9/7--5-7/9------0------------  
A|--5-7------------------------------------------------  
E|-----------------------------------------------------  

Compartilhe esta música: novo

QR Code
Copiar