Paranoid Android

Radiohead

Tom: Cm
Intro: Cm Cm7/Bb F7/9 Gm Gm7 Gm6 Gm Gm7 Gm6  

Cm    Cm7/Bb     F7/9                 Gm      Gm7      Gm6 Gm Gm7 Gm6 Cm  
Please could you stop the noise, I'm trying to get some rest  
   Cm7/Bb  F7/9             Gm   Gm7    Gm6 Gm  
From all the unborn chicken voices in my head  
         Fmaj7  E Gm  
What's that...? I may be paranoid, but not an android  
         Fmaj7  E  
What's that...? I may be paranoid, but not an android  

When I am king, you will be first against the wall  
With your opinion which is of no consequence at all  
What's that...? I may be paranoid, but no android  
What's that...? I may be paranoid, but no android  

Solo: Am G# C D  
      C G# D  

   Am               G#         C  D Am G# C D  
Ambition makes you look pretty ugly  
 Am                    G#           C  D Am G# C D C G# D  
Kicking and squealing gucci little piggy  

You don't remember  
You don't remember  
Why don't you remember my name?  
Off with his head, man  
Off with his head, man  
Why don't you remember my name?  
I guess he does....  

Solo: Cm G/B Bb A Dm A Dm C Bb F/A Gm Gm/F E A7  

 Cm   G/B Bb      A   
Rain down, rain down  
         Dm   A   Dm   C Bb  
Come on rain down on me  
        F/A        Gm  
From a great height  
        Gm/F  E         A7  
From a great height... height...  

That's it, sir,you're leaving  
The crackle of pigskin  
The dust and the screaming  
The yuppies networking  
The panic, the vomit  
The panic, the vomit  
God loves his children,  
God loves his children, yeah!  

Riff 1  
e|-----------------------------------------------------------------------  
B|------8----------8--------8-----------3--------3-----3------3----------  
G|-------8----------8--------8------------3-------3-----3-----3----------  
D|--------------------------------------------------2-2---2-2------------  
A|----------------------8-8----0-0----------0-0-1------------------------  
E|--8-8----8-6-6-6----6------------6-3-3---------------------------------  
   
 Its good of you to stop the noise im tryna get some rest....  
J.G                                                              .5 .5  
e|-----------------------------------------------------------------------  
B|-15--15----15--15---15------15-------3--3---3--3---3----3-4----3/-3/-3  
G|---15--15----15--14---12-12---15-------3--3---3--2---0-0---------------  
D|-----------------------------------------------------------------------  
A|-----------------------------------------------------------------------  
E|-----------------------------------------------------------------------  
 Whats this? Whats this?.............  

Riff 3---------------  
e|------------------------------------------------------------------------  
B|------------------------------------------------------------------------  
G|------------------------------------------------------------------------  
D|------------------------------------------------------------------------  
A|-0-0-0-3-0-------3-5-0-0-0-3-0---5-3-0-5-5-3----------------------------  
E|-----------4-4-4---------------4----------------------------------------  

 trem        trem    -----x4---                       sl.  
e|-20-----20/--20------20----20-17--17-20-20-20-20-20-20-----------------  
B|------------------------17---------------------------------------------  
G|-17-----17/--17--------------------------------------------------------  
D|-----------------------------------------------------------------------  
A|-----------------------------------------------------------------------  
E|-------------------------------------------------------18-------------  

e|-----------------------------------------------------------------------  
B|-8h10-10/-10/-8-9h11-11/-9-8h10-10/-10/-8-97-75-42-8h10-10/-10/  
G|-----------------------------------------------------------------------  
D|-----------------------------------------------------------------------  
A|-----------------------------------------------------------------------  
E|-----------------------------------------------------------------------  

e|------------0----------------------------------------------------------  
B|-8-10-9-8-7-2----------------------------------------------------------  
G|------------2----------------------------------------------------------  
D|------------2----------------------------------------------------------  
A|------------0----------------------------------------------------------  
E|-----------------------------------------------------------------------  

 -----X4----                                           grad. slide up  
e|-9----------------------------------------------------------------------  
B|--8--8-5------13--16--15--4--12-------13--16--15--4--12--12/------------  
G|---------8-5--15/-18/-17/-6/-14/------15/-18/-17/-6/-14/-14//-----------  
D|------------------------------------------------------------------------  
A|------------------------------------------------------------------------  
E|------------------------------------------------------------------------  

e|-----------------------------------------10-8-10/-10h8------------------  
B|-10-8-8-------10-8-----------10-8-8--------------------10-8-8-------10-8  
G|---------_--8------10/-10h8---------_--8----------------------_--8-----  
D|--------8/9-------------------------8/9-----------------------8/9-------  
A|------------------------------------------------------------------------  
E|------------------------------------------------------------------------  
                        C  B Bb A   
e|-----------------------------------------------------------------------  
B|-----------10-8-8------------------------------------------------------  
G|-10/-10h8--------8-9---9-8-7-6----------------------------------------  
D|-----------------------10-9-8-7----------------------------------------  
A|-----------------------10-9-8-7----------------------------------------  
E|------------------------8-7-6-5----------------------------------------

Compartilhe esta música: novo

QR Code
Copiar