Cheia de ManiasCifra Verificada

Raça Negra

Tom: Gm
Introdução:  (Gm F Gm F) 


e|------------------------------------------------------------------| 
B|------------------------------------------------------------------| 
G|--3--3--2-----3--3--3--2-----3--2-----2---------------------------| 
D|-----------5--------------5--------5-----5--3--5--3-----3---------| 
A|-----------------------------------------------------5----5--5--5-| 
E|------------------------------------------------------------------| 

e|-------------------------------------------------------------------| 
B|-----------------------------------------3-------------------------| 
G|--------------3--3--2-----3--3--3--2--------5--3--3--5--2--2--2--2-| 
D|--3-----3--5-----------5--------------5----------------------------| 
A|-----5-------------------------------------------------------------| 
E|-------------------------------------------------------------------| 

e|-----------------------------3-| 
B|-----------------------------3-| 
G|--5-2--2--2--2---------------3-| 
D|----------------3-----3--5---5-| 
A|-------------------5---------5-| 
E|-----------------------------3-| (2x)  

Gm Cheia de manias F Toda dengosa Gm Menina bonita F Sabe que é gostosa Gm Com esse seu jeito F Faz o que quer de mim Gm Domina o meu coração F Eu fico sem saber o que fazer Quero te deixar Gm F Você não quer, não quer Gm Então me ajude a segurar F Essa barra que é gostar de você Gm Então me ajude a segurar F Gm F Gm F Essa barra que é gostar de você Gm F Estou na sua casa quero ir pro cinema Você não gosta Gm F O motelzinho você fecha a porta Gm Então me ajude a segurar F Essa barra que é gostar de você Gm Então me ajude a segurar F Gm F Gm F Essa barra que é gostar de você

Compartilhe esta música: novo

QR Code
Copiar