Every rose has it's thornCifra Verificada

Poison

Tom: G
Intro:   G Cadd9 | G Cadd9 | G Cadd9  
  
  
  
G                                 Cadd9  
We both lie silently still in the dead of the night.   
            G                                 
Although we both lie close together  
        Cadd9   
we feel miles apart inside.   
       G                   Cadd9                     
Was it something I said or something I did?   
       G                  Cadd9   
Did my words not come out right?   
         D                               C  
Though I tried not to hurt you, though I tried.   
But I guess that's why they say  
G Cadd9 ev'ry rose has its thorn, just like G Cadd9 ev'ry night has its dawn. Just like G D C G ev'ry cowboy sings his sad, sad song C ev'ry rose has its thorn
G Cadd9 G Cadd9
First Solo:  
e------------------------------------------------------15br~------------------------  
B---------------14fbr~~----------------13p12-----------------------12----13-12------  
G-14brbrbrbrb~~---------------12-14p12-------12-14fb~--------15br~----12------------   
D------------------------12h14--------14--------------------------------------------  
A-----------------------------------------------------------------------------------  
E----------------------------------------------------------------------------------- 
G Cadd9 Listen to our favourite song playing on the radio G Cadd9 hear the D.J. say love's a game of easy come and easy go. G Cadd9 G Cadd9 But I wonder does he know, has he ever felt like this? D C And I know that you'd be right now if I could've let you know somehow. I guess (Chorus) Em D C G Though it's been a while now I can still feel so much pain. Em D C Like the knife thats cuts you, the wound heals, but the scar, G Cadd9 G Cadd9 that scar remains
Here's the main solo:  
e---------------------------------------------------------------------  
B------12---12----12-----15-------15br---13-12--12--------------------  
G-14b~---14b--14b---14fb--br-11~-------------14--14--12-14-12-11-12-11  
D-14gb----------------------------------------------------------------  
A---------------------------------------------------------------------  
E---------------------------------------------------------------------  
  
e---------------------------------------------------------------------  
A-----------------------------20-----20------20b~---------------------  
D--9fb---10fb---7fb-slide-19b----19b----19b--19b~----9fb---10fb---7fb-  
G---------------------------------------------------------------------  
B---------------------------------------------------------------------  
E---------------------------------------------------------------------  
	       Fast (32nd notes)	  
e-------h17p15--15-h19p15-h17p15---15-h19p15-h17p15----15-15~~~-(15~)-   
B-------------17----------------17-----------------17-----------------  
G-x-16----------------------------------------------------------------  
D---------------------------------------------------------------------  
A---------------------------------------------------------------------  
E---------------------------------------------------------------------
G Cadd9 I know I could have saved our love that night if I'd known what to say G Cadd9 Instead of making love we both made our separate ways. G Cadd9 Now I hear you've found somebody new G Cadd9 and that I never meant that much to you. D C To hear that tears me up inside and to see you cuts me like a knife. I guess (Chorus)
Here starts the Outro solo:  
e---------------------------------------------------------------------  
B----------------------15----15-------------13p12--------15-----------  
G--14fbrp12h14~-14-14qb--14qb---brp12~~-----------12-14fb--fbrp12-----  
D---------------------------------------------------------------------  
A---------------------------------------------------------------------  
E---------------------------------------------------------------------  
  
e---------------------------------------------------------------------  
B-15br~--------------------13p12-------15-----------------------------  
G------14fb-12~---12h14p12------12-14b--brp12~----12~14br-14br12~-11~~  
D-----------12h14-----------------------------------------------------  
A---------------------------------------------------------------------  
E---------------------------------------------------------------------  
  
Outro:  
e--------------(3)------|  
B---------------0-------|  
G---------------0-------|  
D--------0------0-------|  
A------0---(0)--2-------|  
E--0-2----------3-------|

Compartilhe esta música: novo

QR Code
Copiar