Eterno Inverno

Pequeno John

Tom: D
Intro 

 
     D9                   C#/A 
E|--5--------3-----2--------------------------------| 
B|-----3--------3-----3---5-----3-2-----------------| 
G|--------2---------------2-------------------------| 
D|--0---------------------2-------------------------| 
A|------------------------4--4----------------------| 
E|--------------------------------------------------| 
 

 
     D9/B                 G 
E|--5--------3-----2-----3----------------------------|| 
B|-----3--------3-----3--3---------0------------------|| 
G|--------2--------------0------0---------------------|| 
D|-----------------------0---0------------------------|| 
A|--2--------------------x----------------------------|| 
E|-----------------------3----------------------------|| 
 
D C#/A Entre eu e Você Bm7 G Rola um Vicio, Serio! D C#/A E não da pra entender Bm7 G Como tudo acontece sem ver D C#/A Eu não sintonizei, Bm7 G Nas tuas ondas no teu papo serio D C#/A Mais eu me encontrei nas batidas Bm7 G Do seu coração
C9 G/B D9 Quando o sol se abriu e levou aquele eterno inverno C9 G/B D9 e mostrou que você era o caminho certo C9 G/B D9 Quando o sol se abriu e levou aquele eterno inverno Em7 D9/F# G G7M G6 O amor acontece no momento certo, Tá cada vez mais perto.
(Intro) D C#/A It's not easy to say Bm7 G Words locked inside D C#/A It's not hard to play Bm7 G Around with things from the heart D C#/A You made me understand Bm7 G The verses of this poetry D C#/A Bm7 G I learned how to believe this life
C9 G/B D9 When the sun goes down I don't feel the winter anymore C9 G/B D9 You showed the way to find the right door C9 G/B D9 When the sun goes by I don't feel the sorrow anymore Em7 D9/F# G I just see the stars shining with love, shining with love
(Intro) (passagem) (Bb C D)(2x) (Gm Am Bb C Bb C D) (Refrão) (Intro)

Compartilhe esta música: novo

QR Code
Copiar