Adventures In Your Own Backyard

Patrick Watson

Tom: G
Capotraste na 1ª casa
 



 G                           Bm 
Twelve steps in to your backyard 
         G                                   Bm 
Through tall green grass, and into the world 
               G        Bm 
Ain't it feel right? 
               G        Bm 
Ain't it feel nice? 
                 G (drums come in)  Bm 
In your own backyard 

G     Bm 

         G                               Bm 
Through dirty winding road, around your feet 
      G                                 Bm 
That carries me along and into the beat 
                      G 
Didn't need to go so far 
                         Bm 
You found what you were thirsting for 
                      G 
Didn't need to go so far 
                       Bm 
To find what you were looking for 

                   C     Bm 
Cuz it was always beside 
              C     Bm 
Just right behind 
           C     Bm 
Right up ahead 
                 C            D 
You just didn't know  it was in 
              G 
Your own backyard 

Instrumental: 
              G 
             |------------------------------------------------| 
             |----0-----0-------------------------------------| 
             |---0--0---------------------------------0---4---| 
             |--0-----0-------------------0---2---4-----------| 
             |----------------0---2---3-----------------------| 
             |3-----------3-----------------------------------| 
              Em                      F 
             |------------------------------------------------| 
             |------------------------------------------------| 
             |2-----------0-----------------------------------| 
             |------------------4-2-0-----------------------0-| 
             |------------------------3-----------------2-3---| 
             |------------------------------------------------| 
              C           Em          D 
             |------------------------------------------------| 
             |------------------------------------------------| 
             |------------0-----------------------------------| 
             |2-----------------------4-----------------------| 
             |------------------------------------------------| 
             |------------------------------------------------| 
              D (an extra 2 bars) 
             |------------------------| 
             |------------------------| 
             |------------------------| 
             |------------------------| 
             |------------------------| 
             |------------------------| 
              F#m 
             |------------------------------------------------| 
             |2---------------------------------------2---0h2-| 
             |--------------------------------2---4-----------| 
             |----------------------------4-------------------| 
             |------------------------------------------------| 
             |------------------------------------------------| 
              Dm 
             |------------------------------------------------| 
             |3-----------------------------------------------| 
             |------------2-----------------------------------| 
             |------------------------3-----2-----0-----------| 
             |------------------------------------------4-----| 
             |------------------------------------------------| 
              A 
             |------------------------------------------------| 
             |------------------------------------------------| 
             |------------------------------------------------| 
             |2---------------------------------------0---2---| 
             |------------------------------------4-----------| 
             |------------------------------------------------| 
              Dm 
             |------------------------------------------------| 
             |------------0-----------------------------------| 
             |------------------------2-----------------------| 
             |3-------------------------------------------3---| 
             |------------------------------------------------| 
             |------------------------------------------------| 
              A                       C#m 
             |--------------------0---------------------------| 
             |--------2---------------2-----------------------| 
             |----2h4-----------------------------------------| 
             |2-----------------------------------------------| 
             |------------------------------------------------| 
             |------------------------------------------------| 
              F#m 
             |5-----------4-----------0h2---------------------| 
             |------------------------------------------------| 
             |------------------------------------------------| 
             |------------------------------------------------| 
             |------------------------------------------------| 
             |------------------------------------------------| 
              Dm 
             |------------------------------------------------| 
             |------------0-----------1-----------3-----------| 
             |2-----------------------------------------------| 
             |------------------------------------------------| 
             |------------------------------------------------| 
             |------------------------------------------------| 
              D 
             |5-----------7-----------8-----------10----------| 
             |------------------------------------------------| 
             |------------------------------------------------| 
             |------------------------------------------------| 
             |------------------------------------------------| 
             |------------------------------------------------| 


G Bm Twelve steps in to your backyard G Bm Twelve steps in to your backyard G Bm Twelve steps in to your backyard G Bm Twelve steps in to your backyard G Bm Ooohoo ooh ooohoo oh oooooh G Bm Ooohoo ooh ooohoo oh oooooh G Bm Ooohoo ooh ooohoo oh oooooh G Bm Ooohoo ooh ooohoo oh oooooh G Bm G Bm

Compartilhe esta música: novo

QR Code
Copiar