Cuide bem do seu amorCifra Verificada

Paralamas do Sucesso

Tom: G#m
Capotraste na 2ª casa
		 

(ª casa) 

(riff de abertura) 

E|------------------------------------------| 
B|------------------------------------------| 
G|------------------------------------------| 
D|---------4--------------------------------| 
A|---4-4h6----------------------------------| 
E|-7----------------------------------------|
F#m A vida sem freio me leva, me arrasta, me cega A No momento em que eu queria ver F#m No segundo que antecedo o beijo, a palavra que destrói o amor A Quando tudo ainda estava inteiro, no instante em que desmoronou F7M A Palavras duras em voz de veludo F7M A E tudo muda, adeus velho mundo F7M F#m E D#m7(5-) Há um segundo tudo estava em paz A A/G F#m6 F7M(6) Cuide bem do seu amor, seja quem for A A/G F#m6 B7 E Em Dm7(9) E Cuide bem do seu amor, seja quem for (riff) F#m E cada segundo, cada momento, cada instante A É quase eterno, passa devagar F#m Se seu mundo for um mundo inteiro, sua vida, seu amor, seu lar A Cuide tudo que for verdadeiro, deixe tudo que não for passar F7M A Palavras duras em voz de veludo F7M A E tudo muda, adeus velho mundo F7M F#m E D#m7(5-) Há um segundo tudo estava em paz A A/G F#m6 F7M(6) Cuide bem do seu amor, seja quem for A A/G F#m6 B7 E Em Dm7(9) E Cuide bem do seu amor, seja quem for (solo) F7M A Palavras duras em voz de veludo F7M A E tudo muda, adeus velho mundo F7M F#m E D#m7(5-) Há um segundo tudo estava em paz A A/G F#m6 F7M(6) Cuide bem do seu amor, seja quem for A A/G F#m6 B7 E Cuide bem do seu amor, seja quem for A A/G F#m6 F7M(6) Cuide bem... do seu amor... A A/G F#m6 F G A (tabs) (solo)
   F#m 
E|------------------------------------------| 
B|------------------------------------------| 
G|------------------------------------------| 
D|---------4-4h6-4--------------------------| 
A|---4-4h6---------6-4-------2---------4-4-2| 
E|-7-------------------7-2-4---4-2-4h7------| 



   A 
E|------------------------------------------| 
B|------------------------------------------| 
G|------------------------------------------| 
D|---------4-----4--------------------------| 
A|-4-2-4h6---4h6---6-4-2-4/6--2-4---2-------| 
E|--------------------------------4---------| 



   F#m 
E|------------------------------------------| 
B|------------------------------------------| 
G|------------------------------------------| 
D|-----4/6----------4-----------------------| 
A|-4-2------4-2-4h6---6-4-2-----------------| 
E|------------------------------------------| 


   A 
E|------------------------------------------| 
B|------------------------------------------| 
G|------------------------------------------| 
D|---------------4h6-4----------------------| 
A|-------2-2h4-6-------6-4-2-4-2------------| 
E|---2-4------------------------------------|

Compartilhe esta música: novo

QR Code
Copiar