Amor em Vão

Paralamas do Sucesso

Tom: D
Intro1:
              D                   Bm7                Fm            G
e|-3p2-0-2-------------3p2-0-2-------------3p2-0-5------------2-----------|  
B|---------2------3------------2------3-------------------2-----2------3--|\ 
G|--------------2---2---------------2---2---------------2--------------4--|  
D|------------0---------------------------------------4--------------5----|  
A|--------------------------------2----------------------------------------|/ 
E|--------------------------------------------------2--------------3------| 
Intro2: D Bm7 Fm G G6
e|-3p2-0-2-------------3p2-0-2-------------3p2-0-5------------2----------------0--|  
B|---------2------3------------2------3-------------------2-----2------3---3-3----|\ 
G|--------------2---2---------------2---2---------------2--------------4---3------|  
D|------------0---------------------------------------4--------------5-----2------|  
A|--------------------------------2-----------------------------------------------|/ 
E|--------------------------------------------------2--------------3-------3------| 
D
e|----2h0-2---------|             
B|-3--------3--------|\              
G|-2---------2-----|
D|-0----------------|  (Interlud) 
A|-------------------|/ 
E|-------------------| 
G G6
e|----------------------0---|                e|---------------------|             
B|-------3-5-0--------3---0-|\               B|-------3-5-0------3--|\  
G|-----4------------3-------|                G|-----4------------3--|
D|---5------------2---------|  (Variação1)    D|---5------------2----|   (Variação2)
A|--------------------------|/               A|---------------------|/ 
E|-3------------3-----------|                E|-3------------3------| 
Intro1 Intro2 (Interlud) D7+/C# F#m Bm Bm/A G Céu azul os dois pés na água, onde o mar acaba A Bm (Variação) o frio a tarde a solidão (Interlud) D7+/C# F#m Bm Bm/A G Duas mãos vão rasgando as cartas lavando as máguas A Bm (Variação2) Assim é o amor em vão Intro1 Cada canção de amor abre a ferida que não ve fim, Intro2 Cada fração da dôr agora é chuva, cai em mim, G A Bm Mas tudo vai passar D7+/C# (Variação2) Como tudo passa Intro1 Intro2

Compartilhe esta música: novo

QR Code
Copiar