Three Stars

Palma Violets

Tom: C
Intro:
e----------------------------------------------------------------| 
B-1/3-5-8-5-3-1---1/3-5-8-5-3-1-1/3-5-8-5-3-1---1/3-5-3-1-3-1----| 
G---------------2-----------------------------2------------------| 
D----------------------------------------------------------------| 
A----------------------------------------------------------------| 
E----------------------------------------------------------------| 

C Look up in the sky F Up toward the North C There are three new stars G Brightly shining forth C They're shining so bright F From Heaven above C Gee, we're gonna miss you G C Everybody sends their love ohhhhh C In heaven there is love F that will put your mind at rest C it comes to all G but better of not said C but there shinin oh so bright from F C heaven above gee were gonna miss G you everybody sends their C G F when the night is falling in the summer light C G F tell me where you gonna stay tonight C G F when the night is falling when your around C G F better stick it out coz im going in town C G F when the night is falling in the summer light C G F better help me out cos it's coming around whoooo.
SOLO (KIND OF) 

e|----------------------------------------------------| 
B|----------------------------------------------------| 
G|----------------------------0-0000-00-44-2----------| 
D|--2-2-2-22-3-2-0----------2----------------5-3-2----| 
A|-----------------3-----3-5----------------------5-5-| 
E|-------------------3-5------------------------------| 


e|-----------------------------------------------| 
B|-----------------------------------------------| 
G|-----------------------------------------------| 
D|2-3-2-2-2-22-3-2-0--0000-2222-3333-2222--------| 
A|------------------3--------------------22-0----| 
E|-----------------------------------------------| 

e|----------------------------------------------------------------| 
B|-1/3-5-8-5-3-1---1/3-5-8-5-3-1-1/3-5-8-5-3-1---1/3-5-3-1-3-1----| 
G|---------------2-----------------------------2------------------| 
D|----------------------------------------------------------------| 
A|----------------------------------------------------------------| 
E|----------------------------------------------------------------|

Compartilhe esta música: novo

QR Code
Copiar