Fourteen

Palma Violets

Tom: C
14 Palma Violets 



Main riff 
e-----------------------------------------------------------|TIMES 7 
B-0-1-1/----13-13-13----------------------------------------|  
G-----------------------------------------------------------| 
D-----------------------------------------------------------| 
A-----------------------------------------------------------| 
E-----------------------------------------------------------| 


e-----------------------------------------------------------|TIMES 1 
B-0-1-1/----------------------------------------------------| 
C5 G5 Oh fourteen Oh fourteen F5 Take me home through the night C5 G5 Oh fourteen Oh fourteen F5 Take me home through the night C5 G5 Oh fourteen Oh fourteen F5 Take me home through the night C5 G5 Oh fourteen Oh fourteen F5 Take me home through the night C5 G5 F5 C5 G5 F5 F5 F5 F5 F5 F5 F5 F5 F5 C5 G5 Oh fourteen Oh fourteen F5 Take me home C5 G5 Oh fourteen Oh fourteen F5 Take me home C5 G5 Oh fourteen Oh fourteen F5 Take me home C5 G5 Oh fourteen Oh fourteen F5 Take me home
e-----------------------------------------------------------|TIMES 4 
B-0-1-1/----13-13-13----------------------------------------|  
G-----------------------------------------------------------| 
D-----------------------------------------------------------| 
A-----------------------------------------------------------| 
E-----------------------------------------------------------| 

e-----------------------------------------------------------|TIMES 4 
B-1-1-3-1----1--1--1--1-------------------------------------|  
G--------0-2--2--2--2--2------------------------------------| 
D-----------------------------------------------------------| 
A-----------------------------------------------------------| 
E-----------------------------------------------------------|  
C5 G5 Oh fourteen Oh fourteen F5 Take me home C5 G5 Oh fourteen Oh fourteen F5 Take me home C5 G5 Oh fourteen Oh fourteen F5 Take me home C5 G5 Oh fourteen Oh fourteen F5 Take me home
Slower 
e-----------------------------------------------------------|TIMES 4 
B-1-----3-3/5---5/8---8/10----------------------------------|  
G-----------------------------------------------------------| 
D-----------------------------------------------------------| 
A-----------------------------------------------------------| 
E-----------------------------------------------------------| 
C5 G5 Oh fourteen Oh fourteen F5 Take me home through the night C5 G5 Oh fourteen Oh fourteen F5 Take me home through the night

Compartilhe esta música: novo

QR Code
Copiar