All The Garden Birds

Palma Violets

Tom: C
Tuning: 
e|-0-----0-1-3-1-0---------------------------------------------------------| 
B|-----------------3-------------------------------------------------------| 
G|-------------------------------------------------------------------------| 
D|-------------------------------------------------------------------------| 
A|-------------------------------------------------------------------------| 
E|-------------------------------------------------------------------------| 

e|-----------------3--33--3------------------------------------------------| 
B|-1--11---1--11---0--00--0------------------------------------------------| 
G|-0--00---0--00---0--00--0------------------------------------------------| 
D|-2--22---2--22---0--00--0------------------------------------------------| 
A|-3--33---3--33---2--22--2------------------------------------------------| 
E|-----------------3--33--3------------------------------------------------| 
C,G,A Times 4 C G A Don't shoot me down Don't shoot me down All the garden birds All you need is love C,G,A Times 2 wohoo... wohoo... C G A Don't shoot me down Don't shoot me down All the garden birds All you need is love C,G,A Times 2 wohoo... wohoo... C G A And I don't think I can hack (to get back) don't think I can hack (to get back) don't think I can hack (to get back) don't think I can hack...
interlude  
e|-1---------2----1---------3-----------------------------------------------| 
B|-1----1----0----1----1----0-----------------------------------------------| 
G|-2----0----0----2----0----0-----------------------------------------------| 
D|-3----2----0----3----2----0-----------------------------------------------| 
A|------3----2---------3----2-----------------------------------------------| 
E|-----------3--------------3-----------------------------------------------| 
A G C F E A G C F E A G C F E all my friends were there and all of the garden (repeat chord pattern until end)

Compartilhe esta música: novo

QR Code
Copiar