Tentar Voltar

OutHead

Tom: C
Intro: 
 
E|----------------------------------| 
B|---------------5------------------| 
G|---5-7-5---5-7----5-7-5---5-7-5---| 
D|---------5--------------5---------| 
A|----------------------------------|     | 
E|----------------------------------|     | 
                                          | 2X 
E|----------------------------------|     | 
B|---------------5------------------|     | 
G|---5-7-5---5-7----5-5-5---5-5-5---| 
D|---------5------------------------| 
A|----------------------------------| 
E|----------------------------------|
(C, G, A, F) 2X (C, A, F) Hoje eu fiz sem querer, algo mais para tentar te convencer E busquei ao meu redor, poucas pessoas conseguiram me deixar melhor Se fosse só o teu olhar e o teu sorriso, eu não saberia disfarçar Que por você vou caminhar na madrugada. vou seguir e sem me chatear (C, G, A, F) 2X (C, A, F) Me perguntei, será que vou saber lhe dar com essa sua indiferença Sem conversar ou partilhar as nossas brigas toda nossa experiência Senti um vazio dentro de mim, meu coração não pulsava só esperava o fim E me falou a cochichar, que as palavras já não falam mais que um olhar (C, G, A, F) Por que não tentou voltar Por que não foi me procurar Por que não tentou voltar Pra mim palavras já não falam mais que um olhar (C, G, A, F) 2X (C, A, F) Eu prometi, vou te achar, em cada esquina, cada canto vou te procurar Não quero mais nem pensar, é tão estranho eu não sei por onde começar O que falei te amedrontou, fugiu de mim, em outros corpos tu me procurou Mas sem achar, ficou no ar, veio correndo mas meu mundo não se adequou (C, G, A, F) Por que não tentou voltar Por que não foi me procurar Por que não tentou voltar Pra mim palavras já não falam mais que um olhar Parada:
E|----------------------------------| 
B|----------------------------------| 
G|---5------------------------------|    2X 
D|---5---5---7---X-X-3--X-X-3-------| 
A|---3---5---7---X-X-3--X-X-3-------| 
E|-------3---5---X-X-1--X-X-1-------| 
 
E|----------------------------------| 
B|---------------5------------------| 
G|---5-7-5---5-7----5-7-5---5-7-5---| 
D|---------5--------------5---------| 
A|----------------------------------|  | 
E|----------------------------------|  | 
                                       | 2X 
E|----------------------------------|  | 
B|---------------5------------------|  | 
G|---5-7-5---5-7----5-5-5---5-5-5---| 
D|---------5------------------------| 
A|----------------------------------| 
E|----------------------------------|
Só a guitarra: (C, G, A, F) Por que não tentou voltar Por que não foi me procurar Por que não tentou voltar Pra mim palavras já não falam mais que um olhar Tudo: (C, G, A, F) Por que não tentou voltar Por que não foi me procurar Por que não tentou voltar Pra mim palavras já não falam mais que um olhar

Compartilhe esta música: novo

QR Code
Copiar