Esquecer de Você

OutHead

Tom: A
Intro: 4x 
E|------------------------------------------------------| 
B|------------------------------------------------------| 
G|------------------------------------------------------| 
D|------------------------------------------------------| 
A|--7-7-7-7-7/9-9-9-9-9/11-11-11-11-11/12-12-12-12-12/7-| 
E|--5-5-5-5-5/7-7-7-7-7/9--9--9--9--9-/10-10-10-10-10/5-|
(A, B, C#, D) Quantas pessoas já passaram por aqui Quantos momento já voltaram a surgir Muitos lugares já andei sem nem cair Estou a procura de um dia bem feliz (A, B, C#, D) Minha desculpa é esquecer pra superar Eu sinto falta de você, do seu olhar Estou cansado dessas brigas vamos parar Eu adimito estou errado se você voltar REFRÃO - MUDA O RITMO (A, B, C#, D) Procurava porque, tentar entender Achava que era melhor sem você Me arrependi, só penso em ti Não posso esquecer, esquecer de você
PARADA - 2x cada 
E|---------------------------| 
B|---------------------------| 
G|---------------------------|  
D|--7--~--9--~--11-~--12--~--| 
A|--7--~--9--~--11-~--12--~--| 
E|--5--~--7--~--9--~--10--~--| 
 
E|-----------------------------------------------| 
B|-----------------------------------------------| 
G|-----------------------------------------------|  
D|--7-xxxxx--9-xxxxx--11-xxxxx--12-12-12-12-12-12| 
A|--7-xxxxx--9-xxxxx--11-xxxxx--12-12-12-12-12-12| 
E|--5-xxxxx--7-xxxxx--9--xxxxx--10-10-10-10-10-10|
(A, B, C#, D) Minha desculpa é esquecer pra superar Eu sinto falta de você do seu olhar Estou cansado dessas brigas vamos parar Eu adimito estou errado se você voltar REFRÃO - MUDA O RITMO (A, B, C#, D) Procurava porque, tentar entender Achava que era melhor sem você Me arrependi, só penso em ti A Não posso esquecer, esquecer de você

Compartilhe esta música: novo

QR Code
Copiar