Ele É

Os Arrais

Tom: C
Introd.: C/G 

C         Gsus4            F7+ 
No deserto     de quem eu fui, 
         C/G 
eu tinha sede 
C          Gsus4         F7+ 
Veio Cristo,     tudo se fez 
         C 
diferente 

C2                   F7+ 
Ele vê meus pecados ocultos 
                 Am7     Am7/G    F9 
O que escondo no fundo do meu coração 
   C2                   F7+ 
Derrama em minha vida a água 
                    Am7      Am7/G 
Limpa a sujeira e sacia esta sede 
       F9       Gsus4     C 
O que Cristo oferece, Ele é 

C         Gsus4             F7+ 
 No escuro     de quem eu fui, 
          C2 
não tinha nada 
          Gsus4         F7+ 
Veio Cristo, tudo se fez 
        C2 
diferente 

C                           F7+ 
Ele enxerga o que vejo no escuro 
                 Am7      Am7/G    F7+ 
O que escondo do mundo no meu coração 
     C                       F7+ 
E espalha barro que ainda faltava 
                  Am7        Am7/G 
Abre a janela pra luz me encontrar 
      F9        Gsus4 
O que Cristo oferece, Ele é 

Dm7         C/E  F7+ 
(Luz do mundo), 
Dm7      C/E  F7+ 
(Água Viva) 
Dm7        C/E           Am7    Gsus4 
Cristo, Ele é Cristo, Ele é Cristo 

C                     F7+ 
Ele tira o pecado do mundo 
                    Am       Am7/G    F9 
Planta esperança na terra do meu coração 
C                            F7+ 
Cristo, Pão que alimenta o faminto 
                    Am7     Am7/G     F9      C/E 
Vinho esmagado e servido na cruz para todo cansado 
      Am7       Gsus4        C2  F7+  Am7  Am7/G  F9 
O que Cristo oferece, Ele é 


Execução/arranjo dos acordes C2 e F7+: 
     C2                    F7+ 
E|---------------------|--------------------| 
B|--1-1-1-1-1-1-1-1----|--1-1-1-1-1-1-1-1---| 
G|--0-0-0-0-0-0-0-0----|--0h2-2-2-2-2-2-2---| 
D|--0h2-2-2-2-2-2-2----|--3-3-3-3-3-3-3-3---| 
A|--3-3-3-3-3-3-3-3----|--------------------| 
E|---------------------|--------------------| 

Outros acordes: 

    Am7  Am7/G  F9   Gsus4  C/E 
E|--0--|--0--|--x--|--x--|--0--| 
B|--1--|--1--|--x--|--1--|--1--| 
G|--0--|--0--|--0--|--0--|--0--| 
D|--2--|--2--|--3--|--0--|--3--| 
A|--0--|--x--|--3--|--2--|--x--| 
D|--x--|--3--|--1--|--3--|--0--|

Compartilhe esta música: novo

QR Code
Copiar