Feels Like Home

Orianthi

Tom: D
E|---------------------------------------| 
B|---------------------------------------| 
G|--12--11-11----------------12--11-11---| 
D|-------------14-14--12-12--------------| 
A|---------------------------------------| 
E|---------------------------------------| 

E|---------------------------------------| 
B|----------14-14--15-12~~---------------| 
G|--14-14--------------------14-14~~-----| 
D|---------------------------------------| 
A|---------------------------------------| 
E|---------------------------------------| 

E|---------------------------------------| 
B|------15------14b----------------------| 
G|--12------12-------12------------------| 
D|------------------------14--12-14~~----| 
A|---------------------------------------| 
E|---------------------------------------| 

E|---------------------------------------| 
B|---------------------------------------| 
G|---------------------------------------| 
D|--12-----------------------------------| 
A|------14-12----------------------------| 
E|--------------14-12-14~~---------------| 

Intro: D    G    Em    A 

Verso 1: 
D              G 
  going to california i 
                   Em 
Got my bags by the door 
                 A 
And i'm ready to leave 
D                    G 
  so yeah i'm moving forward 
                 Em 
I'm on my way to find 
                A 
Where i need to be 

Refrão: 1: 
G                    D/F# 
  cause every moment now 
                  G 
Is what i believe somehow 
            A 
Would be my reality 

D 
  cause i still wanna 
         G 
Felling minded 
                     Em 
The only way i can define it 
                G 
Cause yeah, i'm on my own 
   A                  D 
It somehow feels like home 
                         G 
There's no other feeling like it 
                       Em 
So real that i can't deny it 
        G 
I don't feel alone 
   A 
It somehow feels like home 

solo: D    G    Em    A 

Verso 2: 
D            G 
  walking in california making 
            Em              A 
My way down sunset boulevard 
D                  G 
  everyone looks familiar so perfect 
       Em                     A 
Like a picture from a magazine 

Refrão: 
G                    D/F# 
  cause every moment now 
Is what i  believe 
    G 
Somehow will 
        A 
Be my reality 
All right now 

Ponte: 
C                            G 
  they have never crossed my mind 
                        D 
I'll take a chance everytime 
            D     C  D 
And i will spread my wings 
        D     C  D 
I will spread my wings 
C                           G 
  i've never been afraid to try 
                      A 
Put everything on the line 
On the line oooon the line 
Well alright right now 

Refrão 

D 
  cause i still wanna 
         Em 
Felling minded 
                     D/F# 
The only way i can define it 
                G 
Cause yeah, i'm on my own 
           A          D 
It somehow feels like home 
                         Em 
There's no other feeling like it 
                       D/F# 
So real that i can't deny it 
        G 
I don't feel alone

(repeat while doing a guitar solo) 

(outro - while doing guitar solo) 
D            Em             D/F# 
  it somehow feels like home 
G                     D   Em 
   somehow feels like home 
      D/F# 
mmhmmm 
G                          D 
Somehow feels like home to me 

Walking in california making my way 
     Em          A  
Down sunset boulevard 

Compartilhe esta música: novo

QR Code
Copiar