Counting Stars

OneRepublic

Tom: Am
Intro: (plucking Am, C, G, F)  
   Am                  C                      G  
e|------0---------0----------0-----------0----------------------------------|  
B|------1---------1----------1-----------1----------3-----------3-----------|  
G|---2----2----2----2-----0-----2-----0-------------0-----------0-----------|  
D|-----------------------------------------------0-----0-----0-----0--------|  
A|-0---------0---------3-----------3----------------------------------------|  
E|--------------------------------------------3-----------3-----------------|  
    F  
e|--------------------------------------------------------------------------|  
B|--------1------------1----------------------------------------------------|  
G|--------2------------2----------------------------------------------------|  
D|-----3-----3------3-----3--x2--play-F-Chord longer-2-time-through---------|  
A|--3------------3----------------------------------------------------------|  
E|--------------------------------------------------------------------------|  

Heres that background part  

e|--3--0-----3--0-----3--0-----------------------------------|  
B|--------3--------3--------3---5----------------------------|  
G|-----------------------------------------------------------|  
D|-----------------------------------------------------------|  
A|-----------------------------------------------------------|  
E|-----------------------------------------------------------|  
(plucking is here) Am, C, G, F  

Lately, I've been, I've been losing sleep Dreaming about the things that we could be But baby, I've been, I've been playing hard, Sitting, no more counting dollars We'll be counting stars, yeah we'll be counting stars Am I see this life like a swinging vine C Swing my heart across the line G And my face is flashing signs F Seek it out and you shall find Am Old, but I'm not that old C Young, but I'm not that bold G I don't think the world is sold F I'm just doing what we're told Am C G I feel something so right F Doing the wrong thing Am C G I feel something so wrong F Doing the right thing F I couldn't lie, couldn't lie, couldn't lie F (1 strum) Everything that kills me makes me feel alive Am C Lately, I've been, I've been losing sleep G F Dreaming about the things that we could be Am C But baby, I've been, I've been playing hard, G Said, no more counting dollars F We'll be counting stars Am C Lately, I've been, I've been losing sleep G F Dreaming about the things that we could be Am C But baby, I've been, I've been playing hard, G Said, no more counting dollars F We'll be, we'll be counting stars (Repeat For the next verse) Am I feel the love and I feel it burn C Down this river, every turn G Hope is a four-letter word F Make that money, watch it burn Am Oh, but I'm not that old C Young, but I'm not that bold G I don't think the world is sold F I'm just doing what we're told Am C G I feel something so wrong F Doing the right thing F I could lie, could lie, could lie F (1 strum) Everything that downs me makes me wanna fly Am C Lately, I've been, I've been losing sleep G F Dreaming about the things that we could be Am C But baby, I've been, I've been playing hard, G Said, no more counting dollars F We'll be counting stars Am C Lately, I've been, I've been losing sleep G F Dreaming about the things that we could be Am C But baby, I've been, I've been playing hard, G Said, no more counting dollars F We'll be, we'll be counting stars Am Am Take that money Am Am Watch it burn Am Am Sink in the river Am Am The lessons are learned (repeat 4 times) F Dm Everything that kills me makes feel alive Am C Lately, I've been, I've been losing sleep G F Dreaming about the things that we could be Am C But baby, I've been, I've been playing hard, G Said, no more counting dollars F We'll be counting stars Am C Lately, I've been, I've been losing sleep G F Dreaming about the things that we could be Am C But baby, I've been, I've been playing hard, G Said, no more counting dollars F We'll be, we'll be, counting stars Am Take that money Watch it burn C Sink in the river The lessons are learned G Take that money Watch it burn F Sink in the river The lessons are learned Am Take that money Watch it burn C Sink in the river The lessons are learned G Take that money Watch it burn F Sink in the river The lessons are learned

Compartilhe esta música: novo

QR Code
Copiar