Stop Crying Your Heart Out

Oasis

Tom: Bm
Intro: 
   Bm 
E|-----------------------------------------| 
B|-3--3--3--3--3--3--3--3----3-------------| 
G|-4--4--4--4--4--4--4--4----4-------------| 
D|-4--4--4--4--4--4--4--4----4-------------| 
A|-2-----------2----------2-----2----------| 
E|-----------------------------------------| 

Primeira Parte: Bm Hold on Bm/A Hold on E7 Don't be scared G You'll never change what’s been and gone Bm May your smile Bm/A Shine on E7 Don't be scared G Your destiny may keep you warm.
   Bm 
E|-----------------------------------------| 
B|-3---3---3---3----3---3---3---3----------| 
G|-4---4---4---4----4---4---4---4----------| 
D|-4---4---4---4----4---4---4---4----------| 
A|-2-2---2---2---2--2-2---2---2---2--------| 
E|-----------------------------------------| 

   Bm/A 
E|-----------------------------------------| 
B|-3---3---3---3----3---3---3---3----------| 
G|-4---4---4---4----4---4---4---4----------| 
D|-4---4---4---4----4---4---4---4----------| 
A|-0-0---0---0---0--0-0---0---0---0--------| 
E|-----------------------------------------| 

   E7 
E|-----------------------------------------| 
B|-3---3---3---3----3---3---3---3----------| 
G|-1---1---1---1----1---1---1---1----------| 
D|-2---2---2---2----2---2---2---2----------| 
A|-----------------------------------------| 
E|-0-0---0---0---0--0-0---0---0---0--------| 

   G 
E|-----------------------------------------| 
B|-0---0---0---0----0---0---0---0----------| 
G|-0---0---0---0----0---0---0---0----------| 
D|-0---0---0---0----0---0---0---0----------| 
A|-----------------------------------------| 
E|-3-3---3---3---3--3-3---3---3---3--------|

(variação) 
   G 
E|-----------------------------------------| 
B|-0---0---0---0----2---2---2---2----------| 
G|-0---0---0---0----2---2---2---2----------| 
D|-0---0---0---0----0---0---0---0----------| 
A|-----------------------------------------| 
E|-3-3---3---3---3--3-3---3---3---3--------| 

D 'Cause all of the stars A4 Are fading away Em7(9) Just try not to worry G You'll see them someday D Take what you need E7 And be on your way G And stop crying your heart out
   G 
E|----2--0--2-----2--0--2----------------| 
B|-3--3--3--3--3--3--3--3----------------| 
G|-0-----0-----0-----0-------------------| 
D|-0-----------0-------------------------| 
A|---------------------------------------| 
E|-3-----------3-------------------------| 

E|----2--0--2-----2--0--2----------------| 
B|-3--3--3--3--3--3--3--3----------------| 
G|-2-----2-----2-----2-------------------| 
D|-0-----------0-------------------------| 
A|---------------------------------------| 
E|-3-----------3-------------------------|

Primeira Parte - com variação na letra: Bm11 Get up (get up) Bm/A Come on (come on) E7 Why’re you scared? (I’m not scared) G You'll never change what's been and gone Refrão: D 'Cause all of the stars A4 Are fading away Em7(9) Just try not to worry G You'll see them someday D Take what you need E7 And be on your way G And stop crying your heart out
   G 
E|----2--0--2-----2--0--2----------------| 
B|-3--3--3--3--3--3--3--3----------------| 
G|-0-----0-----0-----0-------------------| 
D|-0-----------0-------------------------| 
A|---------------------------------------| 
E|-3-----------3-------------------------| 

E|----2--0--2-----2--0--2----------------| 
B|-3--3--3--3--3--3--3--3----------------| 
G|-2-----2-----2-----2-------------------| 
D|-0-----------0-------------------------| 
A|---------------------------------------| 
E|-3-----------3-------------------------| 

Segunda Parte: D A4 Em7(9) G D E7 G
   D 
E|----2--0--2-----2--0--2----------------| 
B|-3--3--3--3--3--3--3--3----------------| 
G|-2-----------2-------------------------| 
D|-0-----------0-------------------------| 
A|---------------------------------------| 
E|---------------------------------------| 

   D/A 
E|----2--0--2-----2--0--2----------------| 
B|-3--3--3--3--3--3--3--3----------------| 
G|-2-----------2-------------------------| 
D|-2-----------2-------------------------| 
A|-0-----------0-------------------------| 
E|---------------------------------------| 

   Em7(9) 
E|----2--0--2-----2--0--2----------------| 
B|-3--3--3--3--3--3--3--3----------------| 
G|-2-----------2-------------------------| 
D|---------------------------------------| 
A|-0-----------0-------------------------| 
E|---------------------------------------| 

   G 
E|----2--0--2-----2--0--2----------------| 
B|-3--3--3--3--3--3--3--3----------------| 
G|-0-----------0-------------------------| 
D|-0-----------0-------------------------| 
A|---------------------------------------| 
E|-3-----------3-------------------------| 


(Variação) 
   E7 
E|----2--0--2-----2--0--2----------------| 
B|-3--3--3--3--3--3--3--3----------------| 
G|-1-----1-----1-----1-------------------| 
D|-2-----------2-------------------------| 
A|---------------------------------------| 
E|-0-----------0-------------------------|

D 'Cause all of the stars A4 Are fading away Em7(9) Just try not to worry G You'll see them someday D Take what you need A4 And be on your way G And stop crying your heart out D Where are all of the stars? D 'Cause all of the stars A4 Are fading away Em7(9) Just try not to worry G You'll see them someday D Take what you need A4 And be on your way Em7(9) G And stop crying your heart out (4x)
( Em7(9) G ) (4x)
Refrão: 

(Repetições do trecho final) 

   Em7(9) 
E|----2--0--2-----2--0--2----------------| 
B|-3--3--3--3--3--3--3--3----------------| 
G|-0-----0-----0-----0-------------------| 
D|-0-----------0-------------------------| 
A|---------------------------------------| 
E|-0-----------0-------------------------| 

   G 
E|----2--0--2-----2--0--2----------------| 
B|-3--3--3--3--3--3--3--3----------------| 
G|-0-----0-----0-----0-------------------| 
D|---------------------------------------| 
A|---------------------------------------| 
E|-3-----------3-------------------------| 

Parte Final: 

   D 
E|-------2--0--0----0--0--0--------------| 
B|-3--3--3--3--3----3--3--3--------------| 
G|-2--2-----2----2-----------------------| 
D|-0--------0----0-----------------------| 
A|---------------------------------------| 
E|---------------------------------------| 

   A4 
E|-------2--0--0----0--0--0--------------| 
B|-3-----3--3--3----3--3--3--------------| 
G|-2--------2----2--2--2--2--------------| 
D|-2--------2----2-----------------------| 
A|-0--------0----0-----------------------| 
E|---------------------------------------| 

   Em7(9) 
E|----2-----0---------2--0-0---0---------| 
B|-3--3-3-3-3---0-3---3--3-3---3-3-3-----| 
G|-0--0-0-0-0---0-0-0----0-0---0-0-0-----| 
D|-2----2-2-2---0-0-0----0-0-0-0-0-0-----| 
A|---------------------------------------| 
E|-0--------0-0---3-3--------3---3-------| 

   Em7(9)             G            D 
E|----------0----------------2-----2-----| 
B|-3----0---3------0--3---3--3--3--3-----| 
G|-0----0---0-0-0--0--0---0--0--0--2-----| 
D|-2--------2-2-2--0--0---0--0--0--0-----| 
A|---------------------------------------| 
E|-0------0-0-0---------3----------------| 


Compartilhe esta música: novo

QR Code
Copiar