Só RezoCifra Verificada

Nx Zero

Tom: Cm5
(intro) G#5  A#5  Cm5  D#5  

E |--11-------------|  
B |-----11----------|  
G |--------10--12---|  
D |-----------------|   (6x)  
A |-----------------|  
E |-----------------|  

E |--11---------------15-|  
B |-----11--------13-----|  
G |--------10--12--------|   1x  
D |----------------------|  
A |----------------------|  
E |----------------------|  

E |--11-------------|  
B |-----11----------|  
G |--------10--12---|  
D |-----------------|   (7x)  
A |-----------------|  
E |-----------------|
Cm5 D#5 Quando não tenho mais pra aonde ir G#5 Fm5 No meu céu não tem mais estrelas Cm5 D#5 Aonde foi parar a coragem? G#5 Fm5 To cansado mas não desisto
(essa parte é a guitarra solo que faz durante a próxima parte da musica)  
E |----------18---------------13----------18--18-14-13----------18----------13|  
B |----13------------13--------------13---------------------13--------13------|  
G |-13----13-----13------13-------13----13---------------13----13---13---13---|  
D |---------------------------------------------------------------------------|  
A |---------------------------------------------------------------------------|  
E |---------------------------------------------------------------------------|
G# A# Mas posso ver uma luz lá no fim Cm D# Será que alguém ainda olha por mim? G# A# Não me julgue por não ser igual F5 Carrego a verdade aqui no olhar
G#5 A#5 Eu só rezo pra ficar bem Cm5 Eu sei que vai D#5 Acredito que vai ficar tudo bem (x2)
(base)  

E |--11-------------|  
B |-----11----------|  
G |--------10--12---|  
D |-----------------|   (7x)  
A |-----------------|  
E |-----------------|  

(solo)  
E |---------------------------------------------------|  
B |---------------------------------------------------|  
G |---------------------------------------------------|  
D |--3--5—---1/3--1—1h3---------3--5-----8---6----1---|  
A |---------------------1—1h3-------------------------|  
E |---------------------------------------------------|
Cm5 D#5 Só Deus sabe o quanto eu corri G#5 Fm5 E o que fiz pra chegar aqui Cm5 D#5 Esse mundo não é mais meu G#5 Fm5 Não me rendo nem me entrego
(essa parte é a guitarra solo que faz durante a próxima parte da musica)  
E |----------18---------------13----------18--18-14-13----------18----------13|  
B |----13------------13--------------13---------------------13--------13------|  
G |-13----13-----13------13-------13----13---------------13----13---13---13---|  
D |---------------------------------------------------------------------------|  
A |---------------------------------------------------------------------------|  
E |---------------------------------------------------------------------------|
G# A# Mas posso ver uma luz lá no fim Cm D# Será que alguém ainda olha por mim? G# A# Não me julgue por não ser igual F5 Carrego a verdade aqui no olhar
G#5 A#5 Eu só rezo pra ficar bem Cm5 Eu sei que vai D#5 Acredito que vai ficar tudo bem (2x)
G#5 Só quero ser o que eu sou A#5 Só quero não ter que mentir Cm5 D#5 Pois ainda não encontrei o que eu procuro G#5 Só quero ser o que eu sou A#5 Só quero não ter que mentir Cm5 D#5 Pois ainda não encontrei ainda não encontrei
(solo)  
E |------------------------------------------------------------------------------------|  
B |--------------------4-4-4-4-----------------------6-6-6-6-----------8-8-8-8---------|  
G |3--5-5-5---3--5-5-5---------3---5-5-5---3---5-5-5---------3---5-5-5----------3-5-5-5|  
D |------------------------------------------------------------------------------------|  
A |------------------------------------------------------------------------------------|  
E |------------------------------------------------------------------------------------|  
E |------------------------|  
B |------------------------|  
G |--8-8-8-8-8-8-8-8-8-8---|  
D |------------------------|  
A |------------------------|  
E |------------------------|
(esse final é dedilhado) G# A# Cm D# Eu só rezo pra ficar bem

Compartilhe esta música: novo

QR Code
Copiar