Another Life

No

Tom: D
Intro: D 

 
E|---------9-9-10-10---------------| 
B|-8-8-8-8-----------10-10-7-7-7-7-| 
G|---------------------------------| 
D|---------------------------------| 
A|---------------------------------| 
E|---------------------------------| 
 
E|9-9-10-10--------------9-9-10-10-----------| 
B|----------10-10----------------------------| 
G|----------------9-9-9-9------------7-7-7-7-| 
D|-------------------------------------------| 
A|-------------------------------------------| 
E|-------------------------------------------| 
Em Daily i remember A/C# D Life before the wall Em No awkward invitations A/C# D We'd just invite them all Em Innocence and laughter A/C# D We threw it all away Em A game of slow disaster A/C# D We didn't need to play G I'll see you in another life D/F# You don't walk this way anymore G I'll see you in another life D/F# A/C# I'll pretend that i don't think of you at all Introdução Em I hope they never sent you A/C# D The words they meant to say Em Cause i'll be home december A/C# D To chase them all away Em Then we'll get pretty after A/C# D I'll take us on a train Em To innocence and laughter A/C# D We'll fill our hearts again ( G D/F# ) D I'll see you in another life Em A/C# You don't walk this way anymore D I'll see you in another life Em A/C# You don't walk this way anymore G I'll see you in another life D/F# You don't walk this way anymore G I'll see you in another life D/F# A/C# I'll pretend that i don't think of you at all

Compartilhe esta música: novo

QR Code
Copiar