Tom: Am
   C      Em      F  (G) Fm 
E|--------------------------| 
B|--------------------------| 
G|--------------------------| 
D|----/5~----/5~-/3~-/5~-3~-| 
A|-/3~----/2~---------------| 
E|--------------------------|

   C      Em      F (G) G#  A#   C 
E|----------------------------------| 
B|----------------------------------| 
G|----------------------------------| 
D|----/5~----/5~-/3~-/5-6~-8/10-10~-| 
A|-/3~----/2~-----------------------| 
E|----------------------------------| 

Verso 1:

C No hace frio afuera E y me desespera F no volver Fm a florecer C Esta muy oscuro E detras de este muro F no me ves... Fm no me ves...
D PITE INTRO Verso Ya no siento el fuego y voy quedando ciego y no lo se no lo se Y la verdad es esta y a veces me cuesta comprender que no lo se
Dm G Voy viviendo muy de a poco Dm G voy sintiendo gusto a poco C y siento tantas voces E que no me conocen F que no ven Fm que no se C Si estoy aca dentro E porque no me encuentro F y no me ves Fm vos no me ves
G O
E|-5b~---5b5b5b----5br~~----5------9-9br----10br-8---7-| 
B|-----------------------6h7----7h8------6~-------9~-9-| 
G|----5~--------5~-----------7~----------------------9-| 
D|---------------------------------------------------9-| 
A|---------------------------------------------------7-| 
E|-----------------------------------------------------|
ESTRIBILLO Voy viviendo muy de a poco voy sintiendo gusto a poco y ya no siento el fuego y voy quedando ciego y no lo se yo no lo se La verdad es esta y casi siempre a mi me cuesta comprender que no la se que no la se D PITE INTRO Altisimo tema dl ultimo disco q salió la semana pasada creo q esta muy muy bien, pero cualkier cosa me mandan mail a Aguante el Rock n' roll y nada mas, es algo que los chetos no pueden entender!

Compartilhe esta música: novo

QR Code
Copiar