Memorias Del Olvido

No Te Va Gustar

Tom: D
Intro: 

  D*                   Am 
E|--------------------------0---------0-----| 
B|-----3---------3------------1---------2---| 
G|-------0---------0----------------------2-| 
D|---4-------4-4-----4----2-------2-2-------| 
A|-5-------5-----------0--------0-----------| 
E|------------------------------------------| 

   C               Em    Bm 
E|-----0-----------------0---------2-----| 
B|-------1-----------------0---------3---| 
G|-------------------------------4-----4-| 
D|---2-------2---------2-------4---------| 
A|-3-------3---3-2---2-------2-----------| 
E|-----------------0---------------------| 

 D*                Am 
 Me pasaron tantas cosas 
 C                    Em      Bm 
 y no me acuerdo de nada. 

  D*                   Am 
E|--------------------------0---------0-----| 
B|-----3---------3------------1---------2---| 
G|-------0---------0----------------------2-| 
D|---4-------4-4-----4----2-------2-2-------| 
A|-5-------5-----------0--------0-----------| 
E|------------------------------------------| 


   C                   Em      Bm 
E|-----0---------0---------0---------2-----| 
B|-------1---------1---------0---------3---| 
G|-------------------0-------------4-----4-|  x2 
D|---2-------2-2---------2-------4---------| 
A|-3-------3-----------2-------2-----------| 
E|-----------------------------------------| 
D* Am Me pasaron tantas cosas C Em Bm y no me acuerdo de nada. D* Am Solo del viento y tus ojos, C Em Bm de llorar a carcajadas. D* Am No sé cuánto habrá pasado C Em Bm desde cuando te leía.
  D*                  Am 
E|-0-------------------0---0---------0-----| 
B|-3---3---------3-----1-----1---------2---| 
G|-0-----0---------0---2-----------------2-| 
D|-4-4-------4-4-----4-2-2-------2-2-------| 
A|-5-------5-----------0-------0-----------| 
E|-x-------------------x-------------------| 


   C                  Em      Bm 
E|-0---0---------0-----0---0---2-----2-----| 
B|-1-----1---------1---0-----0-3-------3---| 
G|-0-----------------0-0-------4---4-----4-|  x2 
D|-2-2-------2-2-------2-2-----4-4---------| 
A|-3-------3-----------2-------2-----------| 
E|-x-------------------0-------x-----------| 
D*                Am 
Nunca quise darme cuenta 
C               Em      Bm 
que no era idea mía. 

 termina el Punteo 

    D*            Am      C              Em    Bm 
e|-------------------------------------------------------| 
B|-------------------------------------------------------| 
G|-------------------------------------------------------| 
D|--5-4ds--5-4--------------4-5------------------4-5-----| 
A|--------------5/3ds-----7-----7--3-2-----5-7/2-----5ds-| 
E|-------------------------------------3-0---------------| 
D* Am Hoy no es que rompa cadenas, C Em Bm solo me doy por vencido. D* Am Y te perdono todo, C Em Bm por venir y haberte ido. (Riff 1) (Riff 1) D* Am Si la pena se supera, (Riff 2) (Riff 3) C Em Bm a mi importa muy poco. (Riff 1) (Riff 1) D* Am No esperaba que así fuera, mi amor, (Riff 2) (Riff 3) C Em D/F# si aún sueño que te toco. Pre-estribillo G Dm No se dé un tiempo a esta parte, Am Em Bm no entiendo como pude desarmarme. D* - Am - C - Em - Bm D* Am Me sobraron tantas cosas, C Em Bm que no pude darte a tiempo D* Am O tal vez nunca exististe, C Em Bm fuiste mi mejor invento. (Riff 1) (Riff 1) D* Am Hoy mis ojos no te ven, (Riff 1) (Riff 1) C Em Bm hoy mi boca no te nombra. (Riff 1) (Riff 1) D* Am Nadie sabe que me hiciste, mi amor, (Riff 1) (Riff 1) C Em D/F# solo mi cuerpo y tu sombra... Estribillo G Dm No se dé un tiempo a esta parte, Am Em D/F# no entiendo como pude desarmarme. G Dm No se dé un tiempo a esta parte Am C D* No entiendo como pude desarmarme o como termino.
   D             Am      C              Em    Bm 
e|-------------------------------------------------------| 
B|-------------------------------------------------------| 
G|-------------------------------------------------------| 
D|--5-4ds--5-4--------------4-5------------------4-5-----| 
A|--------------5/3ds-----7-----7--3-2-----5-7/2---------| 
E|-------------------------------------3-0---------------| 
No, no, no, no. Cómo terminó. 
    D             Am      C           Em 
E|---------------------------------------------------------| 
B|---------------------------------------------------------| 
G|--------------------------------5-4----------------------| 
D|--5-4ds--5-4--------------4-5----------------------------| 
A|--------------5/3ds-----7-----7-----2ds------------------| 
E|------------------------------------0ds------------------| 

(Riff 1) 
e|----5-2-3ds----| 
B|--5------------| 
G|---------------| 

(Riff 2)            (Riff 3) 
e|----3-2--------|  e|--3-2----------| 
B|--5-----5ds----|  B|------3ds------| 
G|---------------|  G|---------------|

Compartilhe esta música: novo

QR Code
Copiar